  0
SECTION
  2
HEADER
  9
$ACADVER
  1
AC1015
  9
$ACADMAINTVER
 70
     6
  9
$DWGCODEPAGE
  3
ANSI_1252
  9
$INSBASE
 10
0.0
 20
0.0
 30
0.0
  9
$EXTMIN
 10
0.0
 20
0.0
 30
0.0
  9
$EXTMAX
 10
1.1
 20
0.8
 30
0.0
  9
$LIMMIN
 10
0.0
 20
0.0
  9
$LIMMAX
 10
1.1
 20
0.8
  9
$ORTHOMODE
 70
     0
  9
$REGENMODE
 70
     1
  9
$FILLMODE
 70
     1
  9
$QTEXTMODE
 70
     0
  9
$MIRRTEXT
 70
     1
  9
$LTSCALE
 40
1.0
  9
$ATTMODE
 70
     1
  9
$TEXTSIZE
 40
0.2
  9
$TRACEWID
 40
0.05
  9
$TEXTSTYLE
  7
Standard
  9
$CLAYER
  8
0
  9
$CELTYPE
  6
ByLayer
  9
$CECOLOR
 62
   256
  9
$CELTSCALE
 40
1.0
  9
$DISPSILH
 70
     0
  9
$DIMSCALE
 40
1.0
  9
$DIMASZ
 40
0.18
  9
$DIMEXO
 40
0.0625
  9
$DIMDLI
 40
0.38
  9
$DIMRND
 40
0.0
  9
$DIMDLE
 40
0.0
  9
$DIMEXE
 40
0.18
  9
$DIMTP
 40
0.0
  9
$DIMTM
 40
0.0
  9
$DIMTXT
 40
0.18
  9
$DIMCEN
 40
0.09
  9
$DIMTSZ
 40
0.0
  9
$DIMTOL
 70
     0
  9
$DIMLIM
 70
     0
  9
$DIMTIH
 70
     1
  9
$DIMTOH
 70
     1
  9
$DIMSE1
 70
     0
  9
$DIMSE2
 70
     0
  9
$DIMTAD
 70
     0
  9
$DIMZIN
 70
     0
  9
$DIMBLK
  1

  9
$DIMASO
 70
     1
  9
$DIMSHO
 70
     1
  9
$DIMPOST
  1

  9
$DIMAPOST
  1

  9
$DIMALT
 70
     0
  9
$DIMALTD
 70
     2
  9
$DIMALTF
 40
25.4
  9
$DIMLFAC
 40
1.0
  9
$DIMTOFL
 70
     0
  9
$DIMTVP
 40
0.0
  9
$DIMTIX
 70
     0
  9
$DIMSOXD
 70
     0
  9
$DIMSAH
 70
     0
  9
$DIMBLK1
  1

  9
$DIMBLK2
  1

  9
$DIMSTYLE
  2
Standard
  9
$DIMCLRD
 70
     0
  9
$DIMCLRE
 70
     0
  9
$DIMCLRT
 70
     0
  9
$DIMTFAC
 40
1.0
  9
$DIMGAP
 40
0.09
  9
$DIMJUST
 70
     0
  9
$DIMSD1
 70
     0
  9
$DIMSD2
 70
     0
  9
$DIMTOLJ
 70
     1
  9
$DIMTZIN
 70
     0
  9
$DIMALTZ
 70
     0
  9
$DIMALTTZ
 70
     0
  9
$DIMUPT
 70
     0
  9
$DIMDEC
 70
     4
  9
$DIMTDEC
 70
     4
  9
$DIMALTU
 70
     2
  9
$DIMALTTD
 70
     2
  9
$DIMTXSTY
  7
Standard
  9
$DIMAUNIT
 70
     0
  9
$DIMADEC
 70
     0
  9
$DIMALTRND
 40
0.0
  9
$DIMAZIN
 70
     0
  9
$DIMDSEP
 70
    46
  9
$DIMATFIT
 70
     3
  9
$DIMFRAC
 70
     0
  9
$DIMLDRBLK
  1

  9
$DIMLUNIT
 70
     2
  9
$DIMLWD
 70
    -2
  9
$DIMLWE
 70
    -2
  9
$DIMTMOVE
 70
     0
  9
$LUNITS
 70
     2
  9
$LUPREC
 70
     4
  9
$SKETCHINC
 40
0.1
  9
$FILLETRAD
 40
0.5
  9
$AUNITS
 70
     0
  9
$AUPREC
 70
     0
  9
$MENU
  1
.
  9
$ELEVATION
 40
0.0
  9
$PELEVATION
 40
0.0
  9
$THICKNESS
 40
0.0
  9
$LIMCHECK
 70
     0
  9
$CHAMFERA
 40
0.5
  9
$CHAMFERB
 40
0.5
  9
$CHAMFERC
 40
1.0
  9
$CHAMFERD
 40
0.0
  9
$SKPOLY
 70
     0
  9
$TDCREATE
 40
2453908.675601308
  9
$TDUCREATE
 40
2453908.633934641
  9
$TDUPDATE
 40
2453908.717267986
  9
$TDUUPDATE
 40
2453908.633934653
  9
$TDINDWG
 40
0.0000000116
  9
$TDUSRTIMER
 40
0.0000000116
  9
$USRTIMER
 70
     1
  9
$ANGBASE
 50
0.0
  9
$ANGDIR
 70
     0
  9
$PDMODE
 70
     0
  9
$PDSIZE
 40
0.0
  9
$PLINEWID
 40
0.0
  9
$SPLFRAME
 70
     0
  9
$SPLINETYPE
 70
     6
  9
$SPLINESEGS
 70
     8
  9
$HANDSEED
  5
1A9
  9
$SURFTAB1
 70
     6
  9
$SURFTAB2
 70
     6
  9
$SURFTYPE
 70
     6
  9
$SURFU
 70
     6
  9
$SURFV
 70
     6
  9
$UCSBASE
  2

  9
$UCSNAME
  2

  9
$UCSORG
 10
0.0
 20
0.0
 30
0.0
  9
$UCSXDIR
 10
1.0
 20
0.0
 30
0.0
  9
$UCSYDIR
 10
0.0
 20
1.0
 30
0.0
  9
$UCSORTHOREF
  2

  9
$UCSORTHOVIEW
 70
     0
  9
$UCSORGTOP
 10
0.0
 20
0.0
 30
0.0
  9
$UCSORGBOTTOM
 10
0.0
 20
0.0
 30
0.0
  9
$UCSORGLEFT
 10
0.0
 20
0.0
 30
0.0
  9
$UCSORGRIGHT
 10
0.0
 20
0.0
 30
0.0
  9
$UCSORGFRONT
 10
0.0
 20
0.0
 30
0.0
  9
$UCSORGBACK
 10
0.0
 20
0.0
 30
0.0
  9
$PUCSBASE
  2

  9
$PUCSNAME
  2

  9
$PUCSORG
 10
0.0
 20
0.0
 30
0.0
  9
$PUCSXDIR
 10
1.0
 20
0.0
 30
0.0
  9
$PUCSYDIR
 10
0.0
 20
1.0
 30
0.0
  9
$PUCSORTHOREF
  2

  9
$PUCSORTHOVIEW
 70
     0
  9
$PUCSORGTOP
 10
0.0
 20
0.0
 30
0.0
  9
$PUCSORGBOTTOM
 10
0.0
 20
0.0
 30
0.0
  9
$PUCSORGLEFT
 10
0.0
 20
0.0
 30
0.0
  9
$PUCSORGRIGHT
 10
0.0
 20
0.0
 30
0.0
  9
$PUCSORGFRONT
 10
0.0
 20
0.0
 30
0.0
  9
$PUCSORGBACK
 10
0.0
 20
0.0
 30
0.0
  9
$USERI1
 70
     0
  9
$USERI2
 70
     0
  9
$USERI3
 70
     0
  9
$USERI4
 70
     0
  9
$USERI5
 70
     0
  9
$USERR1
 40
0.0
  9
$USERR2
 40
0.0
  9
$USERR3
 40
0.0
  9
$USERR4
 40
0.0
  9
$USERR5
 40
0.0
  9
$WORLDVIEW
 70
     1
  9
$SHADEDGE
 70
     3
  9
$SHADEDIF
 70
    70
  9
$TILEMODE
 70
     1
  9
$MAXACTVP
 70
    64
  9
$PINSBASE
 10
0.0
 20
0.0
 30
0.0
  9
$PLIMCHECK
 70
     0
  9
$PEXTMIN
 10
1.000000000000000E+20
 20
1.000000000000000E+20
 30
1.000000000000000E+20
  9
$PEXTMAX
 10
-1.000000000000000E+20
 20
-1.000000000000000E+20
 30
-1.000000000000000E+20
  9
$PLIMMIN
 10
0.0
 20
0.0
  9
$PLIMMAX
 10
12.0
 20
9.0
  9
$UNITMODE
 70
     0
  9
$VISRETAIN
 70
     1
  9
$PLINEGEN
 70
     0
  9
$PSLTSCALE
 70
     1
  9
$TREEDEPTH
 70
  3020
  9
$CMLSTYLE
  2
Standard
  9
$CMLJUST
 70
     0
  9
$CMLSCALE
 40
1.0
  9
$PROXYGRAPHICS
 70
     1
  9
$MEASUREMENT
 70
     0
  9
$CELWEIGHT
370
    -1
  9
$ENDCAPS
280
     0
  9
$JOINSTYLE
280
     0
  9
$LWDISPLAY
290
     0
  9
$INSUNITS
 70
     1
  9
$HYPERLINKBASE
  1

  9
$STYLESHEET
  1

  9
$XEDIT
290
     1
  9
$CEPSNTYPE
380
     0
  9
$PSTYLEMODE
290
     0
  9
$FINGERPRINTGUID
  2
{FAEB1C30-E019-11D5-929B-00C0DF256EC4}
  9
$VERSIONGUID
  2
{FAEB1C32-E019-11D5-929B-00C0DF256EC4}
  9
$EXTNAMES
290
     1
  9
$PSVPSCALE
 40
0.0
  9
$OLESTARTUP
290
     0
  0
ENDSEC
  0
SECTION
  2
CLASSES
  0
CLASS
  1
ACDBDICTIONARYWDFLT
  2
AcDbDictionaryWithDefault
  3
ObjectDBX Classes
 90
        0
280
     0
281
     0
  0
CLASS
  1
ACDBPLACEHOLDER
  2
AcDbPlaceHolder
  3
ObjectDBX Classes
 90
        0
280
     0
281
     0
  0
CLASS
  1
LAYOUT
  2
AcDbLayout
  3
ObjectDBX Classes
 90
        0
280
     0
281
     0
  0
ENDSEC
  0
SECTION
  2
TABLES
  0
TABLE
  2
VPORT
  5
8
330
0
100
AcDbSymbolTable
 70
     2
  0
VPORT
  5
29
330
8
100
AcDbSymbolTableRecord
100
AcDbViewportTableRecord
  2
*Active
 70
     0
 10
0.0
 20
0.0
 11
1.0
 21
1.0
 12
0.55
 22
0.4
 13
0.0
 23
0.0
 14
0.5
 24
0.5
 15
0.5
 25
0.5
 16
0.0
 26
0.0
 36
1.0
 17
0.0
 27
0.0
 37
0.0
 40
0.8002580025000002
 41
1.972972972850329
 42
50.0
 43
0.0
 44
0.0
 50
0.0
 51
0.0
 71
     0
 72
   100
 73
     1
 74
     3
 75
     0
 76
     0
 77
     0
 78
     0
281
     0
 65
     1
110
0.0
120
0.0
130
0.0
111
1.0
121
0.0
131
0.0
112
0.0
122
1.0
132
0.0
 79
     0
146
0.0
  0
ENDTAB
  0
TABLE
  2
LTYPE
  5
5
330
0
100
AcDbSymbolTable
 70
     3
  0
LTYPE
  5
14
330
5
100
AcDbSymbolTableRecord
100
AcDbLinetypeTableRecord
  2
ByBlock
 70
     0
  3

 72
    65
 73
     0
 40
0.0
  0
LTYPE
  5
15
330
5
100
AcDbSymbolTableRecord
100
AcDbLinetypeTableRecord
  2
ByLayer
 70
     0
  3

 72
    65
 73
     0
 40
0.0
  0
LTYPE
  5
16
330
5
100
AcDbSymbolTableRecord
100
AcDbLinetypeTableRecord
  2
Continuous
 70
     0
  3
Solid line
 72
    65
 73
     0
 40
0.0
  0
LTYPE
  5
2B
330
5
100
AcDbSymbolTableRecord
100
AcDbLinetypeTableRecord
  2
Punktlinie_ eng
 70
     0
  3
- - - - - 
 72
    65
 73
     2
 40
0.0088194441795349
 49
0.0
 74
     0
 49
-0.0088194441795349
 74
     0
  0
LTYPE
  5
F1
330
5
100
AcDbSymbolTableRecord
100
AcDbLinetypeTableRecord
  2
Strichpunktlinie
 70
     0
  3
- - - - - 
 72
    65
 73
     4
 40
0.0335138881206512
 49
0.0176388883590698
 74
     0
 49
-0.0088194441795349
 74
     0
 49
0.0
 74
     0
 49
-0.0070555555820465
 74
     0
  0
ENDTAB
  0
TABLE
  2
LAYER
  5
2
330
0
100
AcDbSymbolTable
 70
     5
  0
LAYER
  5
10
330
2
100
AcDbSymbolTableRecord
100
AcDbLayerTableRecord
  2
0
 70
     0
 62
     7
  6
Continuous
370
    -3
390
F
  0
LAYER
  5
2A
330
2
100
AcDbSymbolTableRecord
100
AcDbLayerTableRecord
  2
Knicklinien vorne
 70
     0
 62
     7
  6
Continuous
370
    -3
390
F
  0
LAYER
  5
32
330
2
100
AcDbSymbolTableRecord
100
AcDbLayerTableRecord
  2
Schneidelinien
 70
     0
 62
     7
  6
Continuous
370
    -3
390
F
  0
LAYER
  5
75
330
2
100
AcDbSymbolTableRecord
100
AcDbLayerTableRecord
  2
ArchiCAD
 70
     0
 62
     7
  6
Continuous
370
    -3
390
F
  0
LAYER
  5
F0
330
2
100
AcDbSymbolTableRecord
100
AcDbLayerTableRecord
  2
Knicklinien hinten
 70
     0
 62
     7
  6
Continuous
370
    -3
390
F
  0
ENDTAB
  0
TABLE
  2
STYLE
  5
3
330
0
100
AcDbSymbolTable
 70
     1
  0
STYLE
  5
11
330
3
100
AcDbSymbolTableRecord
100
AcDbTextStyleTableRecord
  2
Standard
 70
     0
 40
0.0
 41
1.0
 50
0.0
 71
     0
 42
0.2
  3
txt
  4
BIGFONT.SHX
  0
ENDTAB
  0
TABLE
  2
VIEW
  5
6
330
0
100
AcDbSymbolTable
 70
     0
  0
ENDTAB
  0
TABLE
  2
UCS
  5
7
330
0
100
AcDbSymbolTable
 70
     0
  0
ENDTAB
  0
TABLE
  2
APPID
  5
9
330
0
100
AcDbSymbolTable
 70
     1
  0
APPID
  5
12
330
9
100
AcDbSymbolTableRecord
100
AcDbRegAppTableRecord
  2
ACAD
 70
     0
  0
ENDTAB
  0
TABLE
  2
DIMSTYLE
  5
A
330
0
100
AcDbSymbolTable
 70
     1
100
AcDbDimStyleTable
  0
DIMSTYLE
105
27
330
A
100
AcDbSymbolTableRecord
100
AcDbDimStyleTableRecord
  2
Standard
 70
     0
340
11
  0
ENDTAB
  0
TABLE
  2
BLOCK_RECORD
  5
1
330
0
100
AcDbSymbolTable
 70
     1
  0
BLOCK_RECORD
  5
1F
330
1
100
AcDbSymbolTableRecord
100
AcDbBlockTableRecord
  2
*Model_Space
340
22
  0
BLOCK_RECORD
  5
1B
330
1
100
AcDbSymbolTableRecord
100
AcDbBlockTableRecord
  2
*Paper_Space
340
1E
  0
BLOCK_RECORD
  5
23
330
1
100
AcDbSymbolTableRecord
100
AcDbBlockTableRecord
  2
*Paper_Space0
340
26
  0
ENDTAB
  0
ENDSEC
  0
SECTION
  2
BLOCKS
  0
BLOCK
  5
20
330
1F
100
AcDbEntity
  8
0
100
AcDbBlockBegin
  2
*Model_Space
 70
     0
 71
     0
 10
0.0
 20
0.0
 30
0.0
  3
*Model_Space
  1

  0
ENDBLK
  5
21
330
1F
100
AcDbEntity
  8
0
100
AcDbBlockEnd
  0
BLOCK
  5
1C
330
1B
100
AcDbEntity
 67
     1
  8
0
100
AcDbBlockBegin
  2
*Paper_Space
 70
     0
 71
     0
 10
0.0
 20
0.0
 30
0.0
  3
*Paper_Space
  1

  0
ENDBLK
  5
1D
330
1B
100
AcDbEntity
 67
     1
  8
0
100
AcDbBlockEnd
  0
BLOCK
  5
24
330
23
100
AcDbEntity
  8
0
100
AcDbBlockBegin
  2
*Paper_Space0
 70
     0
 71
     0
 10
0.0
 20
0.0
 30
0.0
  3
*Paper_Space0
  1

  0
ENDBLK
  5
25
330
23
100
AcDbEntity
  8
0
100
AcDbBlockEnd
  0
ENDSEC
  0
SECTION
  2
ENTITIES
  0
LWPOLYLINE
  5
2C
330
1F
100
AcDbEntity
  8
Knicklinien vorne
  6
Punktlinie_ eng
 62
     7
100
AcDbPolyline
 90
        2
 70
     0
 43
0.00025
 10
0.8365357775648213
 20
0.1017135243280234
 10
0.389313555342598
 20
0.1017135243280234
  0
LWPOLYLINE
  5
2D
330
1F
100
AcDbEntity
  8
Knicklinien vorne
  6
Punktlinie_ eng
 62
     7
100
AcDbPolyline
 90
        2
 70
     0
 43
0.00025
 10
0.8365357775648213
 20
0.2517135243280269
 10
0.389313555342598
 20
0.2517135243280269
  0
LWPOLYLINE
  5
2E
330
1F
100
AcDbEntity
  8
Knicklinien vorne
  6
Punktlinie_ eng
 62
     7
100
AcDbPolyline
 90
        2
 70
     0
 43
0.00025
 10
0.7865357775648215
 20
0.1017135243280234
 10
0.7865357775648215
 20
0.2517135243280269
  0
LWPOLYLINE
  5
2F
330
1F
100
AcDbEntity
  8
Knicklinien vorne
  6
Punktlinie_ eng
 62
     7
100
AcDbPolyline
 90
        2
 70
     0
 43
0.00025
 10
0.6374617034907469
 20
0.1017135243280234
 10
0.6374617034907469
 20
0.2517135243280269
  0
LWPOLYLINE
  5
30
330
1F
100
AcDbEntity
  8
Knicklinien vorne
  6
Punktlinie_ eng
 62
     7
100
AcDbPolyline
 90
        2
 70
     0
 43
0.00025
 10
0.4393135553425979
 20
0.1017135243280234
 10
0.4393135553425979
 20
0.2517135243280269
  0
LWPOLYLINE
  5
31
330
1F
100
AcDbEntity
  8
Knicklinien vorne
  6
Punktlinie_ eng
 62
     7
100
AcDbPolyline
 90
        2
 70
     0
 43
0.00025
 10
0.5874617034907476
 20
0.1017135243280234
 10
0.5874617034907476
 20
0.2517135243280269
  0
LWPOLYLINE
  5
33
330
1F
100
AcDbEntity
  8
Schneidelinien
  6
Continuous
 62
     7
100
AcDbPolyline
 90
        2
 70
     0
 43
0.00025
 10
0.6374617034907469
 20
0.2517135243280269
 10
0.6374617034907469
 20
0.2891565746795095
  0
LWPOLYLINE
  5
34
330
1F
100
AcDbEntity
  8
Schneidelinien
  6
Continuous
 62
     7
100
AcDbPolyline
 90
        2
 70
     0
 43
0.00025
 10
0.5874617034907476
 20
0.2517135243280269
 10
0.5923333734591466
 20
0.2891565746795095
  0
LWPOLYLINE
  5
35
330
1F
100
AcDbEntity
  8
Schneidelinien
  6
Continuous
 62
     7
100
AcDbPolyline
 90
        2
 70
     0
 43
0.00025
 10
0.6374617034907469
 20
0.2891565746795095
 10
0.5923333734591373
 20
0.2891565746795095
  0
LWPOLYLINE
  5
36
330
1F
100
AcDbEntity
  8
Schneidelinien
  6
Continuous
 62
     7
100
AcDbPolyline
 90
        2
 70
     0
 43
0.00025
 10
0.5923333734591466
 20
0.0689357661700067
 10
0.6374617034907469
 20
0.0689357661700067
  0
LWPOLYLINE
  5
37
330
1F
100
AcDbEntity
  8
Schneidelinien
  6
Continuous
 62
     7
100
AcDbPolyline
 90
        2
 70
     0
 43
0.00025
 10
0.6374617034907469
 20
0.1017135243280234
 10
0.6374617034907469
 20
0.0689357661700067
  0
LWPOLYLINE
  5
38
330
1F
100
AcDbEntity
  8
Schneidelinien
  6
Continuous
 62
     7
100
AcDbPolyline
 90
        2
 70
     0
 43
0.00025
 10
0.5874617034907476
 20
0.1017135243280234
 10
0.5923333734591466
 20
0.068935766170009
  0
LWPOLYLINE
  5
39
330
1F
100
AcDbEntity
  8
Schneidelinien
  6
Continuous
 62
     7
100
AcDbPolyline
 90
        2
 70
     0
 43
0.00025
 10
0.389313555342598
 20
0.1017135243280234
 10
0.3930380261681411
 20
0.0979890535024759
  0
LWPOLYLINE
  5
3A
330
1F
100
AcDbEntity
  8
Schneidelinien
  6
Continuous
 62
     7
100
AcDbPolyline
 90
        2
 70
     0
 43
0.00025
 10
0.4393135553425979
 20
0.3017135243280265
 10
0.5874617034907476
 20
0.3017135243280265
  0
LWPOLYLINE
  5
3B
330
1F
100
AcDbEntity
  8
Schneidelinien
  6
Continuous
 62
     7
100
AcDbPolyline
 90
        2
 70
     0
 43
0.00025
 10
0.5874617034907476
 20
0.2517135243280269
 10
0.5874617034907476
 20
0.3017135243280265
  0
LWPOLYLINE
  5
3C
330
1F
100
AcDbEntity
  8
Schneidelinien
  6
Continuous
 62
     7
100
AcDbPolyline
 90
        2
 70
     0
 43
0.00025
 10
0.4393135553425979
 20
0.2517135243280269
 10
0.4393135553425979
 20
0.3017135243280265
  0
LWPOLYLINE
  5
3D
330
1F
100
AcDbEntity
  8
Schneidelinien
  6
Continuous
 62
     7
100
AcDbPolyline
 90
        2
 70
     0
 43
0.00025
 10
0.4344418853741984
 20
0.0689357661700067
 10
0.3930380261681455
 20
0.0689357661700067
  0
LWPOLYLINE
  5
3E
330
1F
100
AcDbEntity
  8
Schneidelinien
  6
Continuous
 62
     7
100
AcDbPolyline
 90
        2
 70
     0
 43
0.00025
 10
0.4393135553425979
 20
0.2517135243280269
 10
0.4344418853741984
 20
0.2891565746795095
  0
LWPOLYLINE
  5
3F
330
1F
100
AcDbEntity
  8
Schneidelinien
  6
Continuous
 62
     7
100
AcDbPolyline
 90
        2
 70
     0
 43
0.00025
 10
0.6374617034907469
 20
0.2517135243280269
 10
0.6439671429817467
 20
0.3017135243280265
  0
LWPOLYLINE
  5
40
330
1F
100
AcDbEntity
  8
Schneidelinien
  6
Continuous
 62
     7
100
AcDbPolyline
 90
        2
 70
     0
 43
0.00025
 10
0.3930380261681455
 20
0.097989053502469
 10
0.3930380261681455
 20
0.0689357661700067
  0
LWPOLYLINE
  5
41
330
1F
100
AcDbEntity
  8
Schneidelinien
  6
Continuous
 62
     7
100
AcDbPolyline
 90
        2
 70
     0
 43
0.00025
 10
0.6439671429817423
 20
0.3017135243280265
 10
0.7865357775648215
 20
0.3017135243280265
  0
LWPOLYLINE
  5
42
330
1F
100
AcDbEntity
  8
Schneidelinien
  6
Continuous
 62
     7
100
AcDbPolyline
 90
        2
 70
     0
 43
0.00025
 10
0.7862209459590156
 20
0.1017135243280234
 10
0.7862209459590156
 20
0.0517135243280238
  0
LWPOLYLINE
  5
43
330
1F
100
AcDbEntity
  8
Schneidelinien
  6
Continuous
 62
     7
100
AcDbPolyline
 90
        2
 70
     0
 43
0.00025
 10
0.4393135553425979
 20
0.1017135243280234
 10
0.4344418853741984
 20
0.068935766170009
  0
LWPOLYLINE
  5
44
330
1F
100
AcDbEntity
  8
Schneidelinien
  6
Continuous
 62
     7
100
AcDbPolyline
 90
        2
 70
     0
 43
0.00025
 10
0.389313555342598
 20
0.2517135243280269
 10
0.3930380261681455
 20
0.2554379951535768
  0
LWPOLYLINE
  5
45
330
1F
100
AcDbEntity
  8
Schneidelinien
  6
Continuous
 62
     7
100
AcDbPolyline
 90
        2
 70
     0
 43
0.00025
 10
0.8365357775648213
 20
0.1017135243280234
 10
0.8328113067392783
 20
0.0979890535024759
  0
LWPOLYLINE
  5
46
330
1F
100
AcDbEntity
  8
Schneidelinien
  6
Continuous
 62
     7
100
AcDbPolyline
 90
        2
 70
     0
 43
0.00025
 10
0.6448930689076716
 20
0.0517135243280238
 10
0.7862209459590156
 20
0.0517135243280238
  0
LWPOLYLINE
  5
47
330
1F
100
AcDbEntity
  8
Schneidelinien
  6
Continuous
 62
     7
100
AcDbPolyline
 90
        2
 70
     0
 43
0.00025
 10
0.7914074475332206
 20
0.0689357661700067
 10
0.8328113067392738
 20
0.0689357661700067
  0
LWPOLYLINE
  5
48
330
1F
100
AcDbEntity
  8
Schneidelinien
  6
Continuous
 62
     7
100
AcDbPolyline
 90
        2
 70
     0
 43
0.00025
 10
0.7865357775648215
 20
0.2517135243280269
 10
0.7914074475332206
 20
0.2891565746795095
  0
LWPOLYLINE
  5
49
330
1F
100
AcDbEntity
  8
Schneidelinien
  6
Continuous
 62
     7
100
AcDbPolyline
 90
        2
 70
     0
 43
0.00025
 10
0.8328113067392738
 20
0.097989053502469
 10
0.8328113067392738
 20
0.0689357661700067
  0
LWPOLYLINE
  5
4A
330
1F
100
AcDbEntity
  8
Schneidelinien
  6
Continuous
 62
     7
100
AcDbPolyline
 90
        2
 70
     0
 43
0.00025
 10
0.389313555342598
 20
0.2517135243280269
 10
0.389313555342598
 20
0.1017135243280234
  0
LWPOLYLINE
  5
4B
330
1F
100
AcDbEntity
  8
Schneidelinien
  6
Continuous
 62
     7
100
AcDbPolyline
 90
        2
 70
     0
 43
0.00025
 10
0.4393135553425979
 20
0.0517135243280238
 10
0.5874617034907476
 20
0.0517135243280238
  0
LWPOLYLINE
  5
4C
330
1F
100
AcDbEntity
  8
Schneidelinien
  6
Continuous
 62
     7
100
AcDbPolyline
 90
        2
 70
     0
 43
0.00025
 10
0.7865357775648215
 20
0.1017135243280234
 10
0.7914074475332206
 20
0.068935766170009
  0
LWPOLYLINE
  5
4D
330
1F
100
AcDbEntity
  8
Schneidelinien
  6
Continuous
 62
     7
100
AcDbPolyline
 90
        2
 70
     0
 43
0.00025
 10
0.6374617034907469
 20
0.1017135243280234
 10
0.6448930689076761
 20
0.0517135243280238
  0
LWPOLYLINE
  5
4E
330
1F
100
AcDbEntity
  8
Schneidelinien
  6
Continuous
 62
     7
100
AcDbPolyline
 90
        2
 70
     0
 43
0.00025
 10
0.5874617034907476
 20
0.1017135243280234
 10
0.5874617034907476
 20
0.0517135243280238
  0
LWPOLYLINE
  5
4F
330
1F
100
AcDbEntity
  8
Schneidelinien
  6
Continuous
 62
     7
100
AcDbPolyline
 90
        2
 70
     0
 43
0.00025
 10
0.8365357775648213
 20
0.2517135243280269
 10
0.8328113067392738
 20
0.2554379951535768
  0
LWPOLYLINE
  5
50
330
1F
100
AcDbEntity
  8
Schneidelinien
  6
Continuous
 62
     7
100
AcDbPolyline
 90
        2
 70
     0
 43
0.00025
 10
0.4393135553425979
 20
0.1017135243280234
 10
0.4393135553425979
 20
0.0517135243280238
  0
LWPOLYLINE
  5
51
330
1F
100
AcDbEntity
  8
Schneidelinien
  6
Continuous
 62
     7
100
AcDbPolyline
 90
        2
 70
     0
 43
0.00025
 10
0.8328113067392738
 20
0.2554379951535721
 10
0.8328113067392738
 20
0.2891565746795095
  0
LWPOLYLINE
  5
52
330
1F
100
AcDbEntity
  8
Schneidelinien
  6
Continuous
 62
     7
100
AcDbPolyline
 90
        2
 70
     0
 43
0.00025
 10
0.8328113067392738
 20
0.2891565746795095
 10
0.7914074475332112
 20
0.2891565746795095
  0
LWPOLYLINE
  5
53
330
1F
100
AcDbEntity
  8
Schneidelinien
  6
Continuous
 62
     7
100
AcDbPolyline
 90
        2
 70
     0
 43
0.00025
 10
0.7865357775648215
 20
0.2517135243280269
 10
0.7865357775648215
 20
0.3017135243280265
  0
LWPOLYLINE
  5
54
330
1F
100
AcDbEntity
  8
Schneidelinien
  6
Continuous
 62
     7
100
AcDbPolyline
 90
        2
 70
     0
 43
0.00025
 10
0.8365357775648213
 20
0.2517135243280269
 10
0.8365357775648213
 20
0.1017135243280234
  0
LWPOLYLINE
  5
55
330
1F
100
AcDbEntity
  8
Schneidelinien
  6
Continuous
 62
     7
100
AcDbPolyline
 90
        2
 70
     0
 43
0.00025
 10
0.3930380261681455
 20
0.2554379951535721
 10
0.3930380261681457
 20
0.2891565746795095
  0
LWPOLYLINE
  5
56
330
1F
100
AcDbEntity
  8
Schneidelinien
  6
Continuous
 62
     7
100
AcDbPolyline
 90
        2
 70
     0
 43
0.00025
 10
0.3930380261681457
 20
0.2891565746795095
 10
0.4344418853742077
 20
0.2891565746795095
  0
LWPOLYLINE
  5
57
330
1F
100
AcDbEntity
  8
Knicklinien vorne
  6
Punktlinie_ eng
 62
     7
100
AcDbPolyline
 90
        2
 70
     0
 43
0.00025
 10
0.808208323739238
 20
0.4518587539596374
 10
0.7977500905063251
 20
0.4853130793472243
  0
LWPOLYLINE
  5
58
330
1F
100
AcDbEntity
  8
Knicklinien vorne
  6
Punktlinie_ eng
 62
     7
100
AcDbPolyline
 90
        2
 70
     0
 43
0.00025
 10
0.7977500905063251
 20
0.4853130793472243
 10
0.8216597754491573
 20
0.5276148296307011
  0
LWPOLYLINE
  5
59
330
1F
100
AcDbEntity
  8
Knicklinien vorne
  6
Punktlinie_ eng
 62
     7
100
AcDbPolyline
 90
        2
 70
     0
 43
0.00025
 10
0.8216597754491573
 20
0.5276148296307011
 10
0.7974495665628442
 20
0.5703012505618236
  0
LWPOLYLINE
  5
5A
330
1F
100
AcDbEntity
  8
Knicklinien vorne
  6
Punktlinie_ eng
 62
     7
100
AcDbPolyline
 90
        2
 70
     0
 43
0.00025
 10
0.7974495665628442
 20
0.5703012505618236
 10
0.820962559900288
 20
0.5964107707708931
  0
LWPOLYLINE
  5
5B
330
1F
100
AcDbEntity
  8
Knicklinien vorne
  6
Punktlinie_ eng
 62
     7
100
AcDbPolyline
 90
        2
 70
     0
 43
0.00025
 10
0.7977500905063251
 20
0.4853130793472243
 10
0.7467571877775679
 20
0.485132764981133
  0
LWPOLYLINE
  5
5C
330
1F
100
AcDbEntity
  8
Knicklinien vorne
  6
Punktlinie_ eng
 62
     7
100
AcDbPolyline
 90
        2
 70
     0
 43
0.00025
 10
0.7225469788912554
 20
0.5278191859122555
 10
0.7488728763396181
 20
0.5714913253779765
  0
LWPOLYLINE
  5
5D
330
1F
100
AcDbEntity
  8
Knicklinien vorne
  6
Punktlinie_ eng
 62
     7
100
AcDbPolyline
 90
        2
 70
     0
 43
0.00025
 10
0.797651988650929
 20
0.5702962914460832
 10
0.7488728763396181
 20
0.5714913253779765
  0
LWPOLYLINE
  5
5E
330
1F
100
AcDbEntity
  8
Knicklinien vorne
  6
Punktlinie_ eng
 62
     7
100
AcDbPolyline
 90
        2
 70
     0
 43
0.00025
 10
0.7467571877775679
 20
0.485132764981133
 10
0.7225469788912554
 20
0.5278191859122555
  0
LWPOLYLINE
  5
5F
330
1F
100
AcDbEntity
  8
Knicklinien vorne
  6
Punktlinie_ eng
 62
     7
100
AcDbPolyline
 90
        2
 70
     0
 43
0.00025
 10
0.8552823942450883
 20
0.519007823889595
 10
0.8216597754491573
 20
0.5276148296307011
  0
LWPOLYLINE
  5
60
330
1F
100
AcDbEntity
  8
Knicklinien vorne
  6
Punktlinie_ eng
 62
     7
100
AcDbPolyline
 90
        2
 70
     0
 43
0.00025
 10
0.7371558947121358
 20
0.6033096172800569
 10
0.7488728763396181
 20
0.5714913253779765
  0
LWPOLYLINE
  5
61
330
1F
100
AcDbEntity
  8
Knicklinien vorne
  6
Punktlinie_ eng
 62
     7
100
AcDbPolyline
 90
        2
 70
     0
 43
0.00025
 10
0.7237190528528213
 20
0.4606013785382959
 10
0.7467571877775679
 20
0.485132764981133
  0
LWPOLYLINE
  5
62
330
1F
100
AcDbEntity
  8
Knicklinien vorne
  6
Punktlinie_ eng
 62
     7
100
AcDbPolyline
 90
        2
 70
     0
 43
0.00025
 10
0.6893811564894016
 20
0.5356207874848546
 10
0.7225469788912554
 20
0.5278191859122555
  0
LWPOLYLINE
  5
63
330
1F
100
AcDbEntity
  8
Schneidelinien
  6
Continuous
 62
     7
100
AcDbPolyline
 90
        2
 70
     0
 43
0.00025
 10
0.7237190528528213
 20
0.4606013785382959
 10
0.7406626859880547
 20
0.4645851633326903
  0
LWPOLYLINE
  5
64
330
1F
100
AcDbEntity
  8
Schneidelinien
  6
Continuous
 62
     7
100
AcDbPolyline
 90
        2
 70
     0
 43
0.00025
 10
0.808208323739238
 20
0.4518587539596374
 10
0.8154126912864556
 20
0.4655313302757578
  0
LWPOLYLINE
  5
65
330
1F
100
AcDbEntity
  8
Schneidelinien
  6
Continuous
 62
     7
100
AcDbPolyline
 90
        2
 70
     0
 43
0.00025
 10
0.7371558947121358
 20
0.6033096172800569
 10
0.8075471371957896
 20
0.6040105901412959
  0
LWPOLYLINE
  5
66
330
1F
100
AcDbEntity
  8
Schneidelinien
  6
Continuous
 62
     7
100
AcDbPolyline
 90
        2
 70
     0
 43
0.00025
 10
0.820962559900288
 20
0.5964107707708931
 10
0.8042381288100582
 20
0.5929639244233076
  0
LWPOLYLINE
  5
67
330
1F
100
AcDbEntity
  8
Schneidelinien
  6
Continuous
 62
     7
100
AcDbPolyline
 90
        2
 70
     0
 43
0.00025
 10
0.7371558947121358
 20
0.6033096172800569
 10
0.7307191247412037
 20
0.5915901217905062
  0
LWPOLYLINE
  5
68
330
1F
100
AcDbEntity
  8
Schneidelinien
  6
Continuous
 62
     7
100
AcDbPolyline
 90
        2
 70
     0
 43
0.00025
 10
0.7237190528528213
 20
0.4606013785382959
 10
0.6889758602595033
 20
0.5218591128475655
  0
LWPOLYLINE
  5
69
330
1F
100
AcDbEntity
  8
Schneidelinien
  6
Continuous
 62
     7
100
AcDbPolyline
 90
        2
 70
     0
 43
0.00025
 10
0.8210947904354292
 20
0.4591674962649391
 10
0.7977500905063251
 20
0.4853130793472243
  0
LWPOLYLINE
  5
6A
330
1F
100
AcDbEntity
  8
Schneidelinien
  6
Continuous
 62
     7
100
AcDbPolyline
 90
        2
 70
     0
 43
0.00025
 10
0.8075471371957896
 20
0.6040105901412959
 10
0.7974495665628442
 20
0.5703012505618236
  0
LWPOLYLINE
  5
6B
330
1F
100
AcDbEntity
  8
Schneidelinien
  6
Continuous
 62
     7
100
AcDbPolyline
 90
        2
 70
     0
 43
0.00025
 10
0.7225469788912554
 20
0.5278191859122555
 10
0.6889758602595033
 20
0.5218591128475655
  0
LWPOLYLINE
  5
6C
330
1F
100
AcDbEntity
  8
Schneidelinien
  6
Continuous
 62
     7
100
AcDbPolyline
 90
        2
 70
     0
 43
0.00025
 10
0.6893811564894016
 20
0.5356207874848546
 10
0.6944675224143339
 20
0.5228340790990161
  0
LWPOLYLINE
  5
6D
330
1F
100
AcDbEntity
  8
Schneidelinien
  6
Continuous
 62
     7
100
AcDbPolyline
 90
        2
 70
     0
 43
0.00025
 10
0.8552823942450883
 20
0.519007823889595
 10
0.8503898644453207
 20
0.5332646797680258
  0
LWPOLYLINE
  5
6E
330
1F
100
AcDbEntity
  8
Schneidelinien
  6
Continuous
 62
     7
100
AcDbPolyline
 90
        2
 70
     0
 43
0.00025
 10
0.820962559900288
 20
0.5964107707708931
 10
0.8561358822445535
 20
0.5343946497954861
  0
LWPOLYLINE
  5
6F
330
1F
100
AcDbEntity
  8
Schneidelinien
  6
Continuous
 62
     7
100
AcDbPolyline
 90
        2
 70
     0
 43
0.00025
 10
0.8561358822445535
 20
0.5343946497954861
 10
0.8216597754491573
 20
0.5276148296307011
  0
LWPOLYLINE
  5
70
330
1F
100
AcDbEntity
  8
Schneidelinien
  6
Continuous
 62
     7
100
AcDbPolyline
 90
        2
 70
     0
 43
0.00025
 10
0.8552823942450883
 20
0.519007823889595
 10
0.8210947904354292
 20
0.4591674962649391
  0
LWPOLYLINE
  5
71
330
1F
100
AcDbEntity
  8
Schneidelinien
  6
Continuous
 62
     7
100
AcDbPolyline
 90
        2
 70
     0
 43
0.00025
 10
0.6893811564894016
 20
0.5356207874848546
 10
0.7259849728045953
 20
0.5968315042917499
  0
LWPOLYLINE
  5
72
330
1F
100
AcDbEntity
  8
Schneidelinien
  6
Continuous
 62
     7
100
AcDbPolyline
 90
        2
 70
     0
 43
0.00025
 10
0.7259849728045953
 20
0.5968315042917499
 10
0.7488728763396181
 20
0.5714913253779765
  0
LWPOLYLINE
  5
73
330
1F
100
AcDbEntity
  8
Schneidelinien
  6
Continuous
 62
     7
100
AcDbPolyline
 90
        2
 70
     0
 43
0.00025
 10
0.736887981473865
 20
0.4518587539596375
 10
0.7467571877775679
 20
0.485132764981133
  0
LWPOLYLINE
  5
74
330
1F
100
AcDbEntity
  8
Schneidelinien
  6
Continuous
 62
     7
100
AcDbPolyline
 90
        2
 70
     0
 43
0.00025
 10
0.808208323739238
 20
0.4518587539596374
 10
0.736887981473865
 20
0.4518587539596375
  0
LWPOLYLINE
  5
76
330
1F
100
AcDbEntity
  8
ArchiCAD
  6
Continuous
 62
     7
100
AcDbPolyline
 90
        2
 70
     0
 43
0.00025
 10
0.0
 20
0.0
 10
1.1
 20
0.0
  0
LWPOLYLINE
  5
77
330
1F
100
AcDbEntity
  8
ArchiCAD
  6
Continuous
 62
     7
100
AcDbPolyline
 90
        2
 70
     0
 43
0.00025
 10
1.1
 20
0.0
 10
1.1
 20
0.8
  0
LWPOLYLINE
  5
78
330
1F
100
AcDbEntity
  8
ArchiCAD
  6
Continuous
 62
     7
100
AcDbPolyline
 90
        2
 70
     0
 43
0.00025
 10
1.1
 20
0.8
 10
0.0
 20
0.8
  0
LWPOLYLINE
  5
79
330
1F
100
AcDbEntity
  8
ArchiCAD
  6
Continuous
 62
     7
100
AcDbPolyline
 90
        2
 70
     0
 43
0.00025
 10
0.0
 20
0.8
 10
0.0
 20
0.0
  0
LWPOLYLINE
  5
7A
330
1F
100
AcDbEntity
  8
Knicklinien vorne
  6
Punktlinie_ eng
 62
     7
100
AcDbPolyline
 90
        2
 70
     0
 43
0.00025
 10
0.2757031794183894
 20
0.0499965197269309
 10
0.2794068831220921
 20
0.0861076308380427
  0
LWPOLYLINE
  5
7B
330
1F
100
AcDbEntity
  8
Knicklinien vorne
  6
Punktlinie_ eng
 62
     7
100
AcDbPolyline
 90
        2
 70
     0
 43
0.00025
 10
0.210888364603571
 20
0.2499965197269339
 10
0.2145920683072732
 20
0.2870335567639725
  0
LWPOLYLINE
  5
7C
330
1F
100
AcDbEntity
  8
Knicklinien vorne
  6
Punktlinie_ eng
 62
     7
100
AcDbPolyline
 90
        2
 70
     0
 43
0.00025
 10
0.2145920683072732
 20
0.2870335567639725
 10
0.179406883122088
 20
0.3037002234306383
  0
LWPOLYLINE
  5
7D
330
1F
100
AcDbEntity
  8
Knicklinien vorne
  6
Punktlinie_ eng
 62
     7
100
AcDbPolyline
 90
        2
 70
     0
 43
0.00025
 10
0.2544068831220899
 20
0.1620335567639714
 10
0.2858883646035725
 20
0.1861076308380442
  0
LWPOLYLINE
  5
7E
330
1F
100
AcDbEntity
  8
Knicklinien vorne
  6
Punktlinie_ eng
 62
     7
100
AcDbPolyline
 90
        2
 70
     0
 43
0.00025
 10
0.2451476238628317
 20
0.3083298530602675
 10
0.2145920683072732
 20
0.2870335567639725
  0
LWPOLYLINE
  5
7F
330
1F
100
AcDbEntity
  8
Knicklinien vorne
  6
Punktlinie_ eng
 62
     7
100
AcDbPolyline
 90
        2
 70
     0
 43
0.00025
 10
0.2488513275665339
 20
0.3018483715787871
 10
0.2599624386776459
 20
0.337959482689899
  0
LWPOLYLINE
  5
80
330
1F
100
AcDbEntity
  8
Knicklinien vorne
  6
Punktlinie_ eng
 62
     7
100
AcDbPolyline
 90
        2
 70
     0
 43
0.00025
 10
0.2488513275665339
 20
0.3018483715787871
 10
0.2794068831220921
 20
0.2796261493565653
  0
LWPOLYLINE
  5
81
330
1F
100
AcDbEntity
  8
Knicklinien vorne
  6
Punktlinie_ eng
 62
     7
100
AcDbPolyline
 90
        2
 70
     0
 43
0.00025
 10
0.2794068831220921
 20
0.2796261493565653
 10
0.3108883646035746
 20
0.3018483715787871
  0
LWPOLYLINE
  5
82
330
1F
100
AcDbEntity
  8
Knicklinien vorne
  6
Punktlinie_ eng
 62
     7
100
AcDbPolyline
 90
        2
 70
     0
 43
0.00025
 10
0.210888364603571
 20
0.0555520752824868
 10
0.2414439201591286
 20
0.0351817049121163
  0
LWPOLYLINE
  5
83
330
1F
100
AcDbEntity
  8
Knicklinien vorne
  6
Punktlinie_ eng
 62
     7
100
AcDbPolyline
 90
        2
 70
     0
 43
0.00025
 10
0.2145920683072732
 20
0.09351503824545
 10
0.2488513275665339
 20
0.1083298530602669
  0
LWPOLYLINE
  5
84
330
1F
100
AcDbEntity
  8
Knicklinien vorne
  6
Punktlinie_ eng
 62
     7
100
AcDbPolyline
 90
        2
 70
     0
 43
0.00025
 10
0.173851327566532
 20
0.2407372604676755
 10
0.210888364603571
 20
0.2499965197269339
  0
LWPOLYLINE
  5
85
330
1F
100
AcDbEntity
  8
Knicklinien vorne
  6
Punktlinie_ eng
 62
     7
100
AcDbPolyline
 90
        2
 70
     0
 43
0.00025
 10
0.2757031794183894
 20
0.2435150382454535
 10
0.2794068831220921
 20
0.2796261493565653
  0
LWPOLYLINE
  5
86
330
1F
100
AcDbEntity
  8
Knicklinien vorne
  6
Punktlinie_ eng
 62
     7
100
AcDbPolyline
 90
        2
 70
     0
 43
0.00025
 10
0.3108883646035746
 20
0.3018483715787871
 10
0.3432957720109816
 20
0.2870335567639725
  0
LWPOLYLINE
  5
87
330
1F
100
AcDbEntity
  8
Knicklinien vorne
  6
Punktlinie_ eng
 62
     7
100
AcDbPolyline
 90
        2
 70
     0
 43
0.00025
 10
0.2858883646035725
 20
0.1861076308380442
 10
0.2738513275665361
 20
0.222218741949156
  0
LWPOLYLINE
  5
88
330
1F
100
AcDbEntity
  8
Knicklinien vorne
  6
Punktlinie_ eng
 62
     7
100
AcDbPolyline
 90
        2
 70
     0
 43
0.00025
 10
0.2738513275665361
 20
0.222218741949156
 10
0.2349624386776438
 20
0.222218741949156
  0
LWPOLYLINE
  5
89
330
1F
100
AcDbEntity
  8
Knicklinien vorne
  6
Punktlinie_ eng
 62
     7
100
AcDbPolyline
 90
        2
 70
     0
 43
0.00025
 10
0.179406883122088
 20
0.1092557789861913
 10
0.2145920683072732
 20
0.09351503824545
  0
LWPOLYLINE
  5
8A
330
1F
100
AcDbEntity
  8
Knicklinien vorne
  6
Punktlinie_ eng
 62
     7
100
AcDbPolyline
 90
        2
 70
     0
 43
0.00025
 10
0.2145920683072732
 20
0.09351503824545
 10
0.210888364603571
 20
0.0555520752824868
  0
LWPOLYLINE
  5
8B
330
1F
100
AcDbEntity
  8
Knicklinien vorne
  6
Punktlinie_ eng
 62
     7
100
AcDbPolyline
 90
        2
 70
     0
 43
0.00025
 10
0.179406883122088
 20
0.3037002234306383
 10
0.1534809571961618
 20
0.2749965197269337
  0
LWPOLYLINE
  5
8C
330
1F
100
AcDbEntity
  8
Knicklinien vorne
  6
Punktlinie_ eng
 62
     7
100
AcDbPolyline
 90
        2
 70
     0
 43
0.00025
 10
0.2349624386776438
 20
0.222218741949156
 10
0.2238513275665363
 20
0.1861076308380442
  0
LWPOLYLINE
  5
8D
330
1F
100
AcDbEntity
  8
Knicklinien vorne
  6
Punktlinie_ eng
 62
     7
100
AcDbPolyline
 90
        2
 70
     0
 43
0.00025
 10
0.1544068831220907
 20
0.0805520752824868
 10
0.179406883122088
 20
0.1092557789861913
  0
LWPOLYLINE
  5
8E
330
1F
100
AcDbEntity
  8
Knicklinien vorne
  6
Punktlinie_ eng
 62
     7
100
AcDbPolyline
 90
        2
 70
     0
 43
0.00025
 10
0.2247772534924607
 20
0.1768483715787858
 10
0.2432957720109775
 20
0.1444409641713763
  0
LWPOLYLINE
  5
8F
330
1F
100
AcDbEntity
  8
Knicklinien vorne
  6
Punktlinie_ eng
 62
     7
100
AcDbPolyline
 90
        2
 70
     0
 43
0.00025
 10
0.1544068831220907
 20
0.0805520752824868
 10
0.173851327566532
 20
0.0472187419491553
  0
LWPOLYLINE
  5
90
330
1F
100
AcDbEntity
  8
Knicklinien vorne
  6
Punktlinie_ eng
 62
     7
100
AcDbPolyline
 90
        2
 70
     0
 43
0.00025
 10
0.1312587349739419
 20
0.1518483715787861
 10
0.1682957720109809
 20
0.1444409641713763
  0
LWPOLYLINE
  5
91
330
1F
100
AcDbEntity
  8
Knicklinien vorne
  6
Punktlinie_ eng
 62
     7
100
AcDbPolyline
 90
        2
 70
     0
 43
0.00025
 10
0.1544068831220907
 20
0.0805520752824868
 10
0.1182957720109766
 20
0.0888854086158209
  0
LWPOLYLINE
  5
92
330
1F
100
AcDbEntity
  8
Knicklinien vorne
  6
Punktlinie_ eng
 62
     7
100
AcDbPolyline
 90
        2
 70
     0
 43
0.00025
 10
0.1868142905294977
 20
0.1768483715787858
 10
0.1618142905294956
 20
0.2055520752824903
  0
LWPOLYLINE
  5
93
330
1F
100
AcDbEntity
  8
Knicklinien vorne
  6
Punktlinie_ eng
 62
     7
100
AcDbPolyline
 90
        2
 70
     0
 43
0.00025
 10
0.1534809571961618
 20
0.2749965197269337
 10
0.173851327566532
 20
0.2407372604676755
  0
LWPOLYLINE
  5
94
330
1F
100
AcDbEntity
  8
Knicklinien vorne
  6
Punktlinie_ eng
 62
     7
100
AcDbPolyline
 90
        2
 70
     0
 43
0.00025
 10
0.0738513275665328
 20
0.1407372604676739
 10
0.1099624386776424
 20
0.1481446678750812
  0
LWPOLYLINE
  5
95
330
1F
100
AcDbEntity
  8
Knicklinien vorne
  6
Punktlinie_ eng
 62
     7
100
AcDbPolyline
 90
        2
 70
     0
 43
0.00025
 10
0.1618142905294956
 20
0.2055520752824903
 10
0.1664439201591271
 20
0.2416631863936022
  0
LWPOLYLINE
  5
96
330
1F
100
AcDbEntity
  8
Knicklinien vorne
  6
Punktlinie_ eng
 62
     7
100
AcDbPolyline
 90
        2
 70
     0
 43
0.00025
 10
0.1219994757146837
 20
0.1842557789861931
 10
0.1099624386776424
 20
0.1481446678750812
  0
LWPOLYLINE
  5
97
330
1F
100
AcDbEntity
  8
Knicklinien vorne
  6
Punktlinie_ eng
 62
     7
100
AcDbPolyline
 90
        2
 70
     0
 43
0.00025
 10
0.1219994757146837
 20
0.1842557789861931
 10
0.0969994757146816
 20
0.212033556763971
  0
LWPOLYLINE
  5
98
330
1F
100
AcDbEntity
  8
Knicklinien vorne
  6
Punktlinie_ eng
 62
     7
100
AcDbPolyline
 90
        2
 70
     0
 43
0.00025
 10
0.1868142905294977
 20
0.1768483715787858
 10
0.2238513275665318
 20
0.1861076308380442
  0
LWPOLYLINE
  5
99
330
1F
100
AcDbEntity
  8
Knicklinien vorne
  6
Punktlinie_ eng
 62
     7
100
AcDbPolyline
 90
        2
 70
     0
 43
0.00025
 10
0.1868142905294977
 20
0.1768483715787858
 10
0.1682957720109809
 20
0.1444409641713763
  0
LWPOLYLINE
  5
9A
330
1F
100
AcDbEntity
  8
Knicklinien vorne
  6
Punktlinie_ eng
 62
     7
100
AcDbPolyline
 90
        2
 70
     0
 43
0.00025
 10
0.1682957720109809
 20
0.1444409641713763
 10
0.179406883122088
 20
0.1092557789861913
  0
LWPOLYLINE
  5
9B
330
1F
100
AcDbEntity
  8
Knicklinien vorne
  6
Punktlinie_ eng
 62
     7
100
AcDbPolyline
 90
        2
 70
     0
 43
0.00025
 10
0.0599624386776426
 20
0.2037002234306368
 10
0.0969994757146816
 20
0.212033556763971
  0
LWPOLYLINE
  5
9C
330
1F
100
AcDbEntity
  8
Knicklinien vorne
  6
Punktlinie_ eng
 62
     7
100
AcDbPolyline
 90
        2
 70
     0
 43
0.00025
 10
0.0969994757146816
 20
0.212033556763971
 10
0.1007031794183843
 20
0.2499965197269339
  0
LWPOLYLINE
  5
9D
330
1F
100
AcDbEntity
  8
Knicklinien vorne
  6
Punktlinie_ eng
 62
     7
100
AcDbPolyline
 90
        2
 70
     0
 43
0.00025
 10
0.1275550312702348
 20
0.1907372604676735
 10
0.1618142905294956
 20
0.2055520752824903
  0
LWPOLYLINE
  5
9E
330
1F
100
AcDbEntity
  8
Knicklinien vorne
  6
Punktlinie_ eng
 62
     7
100
AcDbPolyline
 90
        2
 70
     0
 43
0.00025
 10
0.0664439201591235
 20
0.2657372604676752
 10
0.0395920683072725
 20
0.2370335567639706
  0
LWPOLYLINE
  5
9F
330
1F
100
AcDbEntity
  8
Knicklinien vorne
  6
Punktlinie_ eng
 62
     7
100
AcDbPolyline
 90
        2
 70
     0
 43
0.00025
 10
0.1007031794183843
 20
0.2499965197269339
 10
0.0664439201591235
 20
0.2657372604676752
  0
LWPOLYLINE
  5
A0
330
1F
100
AcDbEntity
  8
Knicklinien vorne
  6
Punktlinie_ eng
 62
     7
100
AcDbPolyline
 90
        2
 70
     0
 43
0.00025
 10
0.0932957720109789
 20
0.3240705938010089
 10
0.1257031794183864
 20
0.3092557789861944
  0
LWPOLYLINE
  5
A1
330
1F
100
AcDbEntity
  8
Knicklinien vorne
  6
Punktlinie_ eng
 62
     7
100
AcDbPolyline
 90
        2
 70
     0
 43
0.00025
 10
0.1312587349739419
 20
0.2722187419491581
 10
0.1007031794183843
 20
0.2499965197269339
  0
LWPOLYLINE
  5
A2
330
1F
100
AcDbEntity
  8
Schneidelinien
  6
Continuous
 62
     7
100
AcDbPolyline
 90
        2
 70
     0
 43
0.00025
 10
0.173851327566532
 20
0.2407372604676755
 10
0.1664439201591271
 20
0.2416631863936022
  0
LWPOLYLINE
  5
A3
330
1F
100
AcDbEntity
  8
Schneidelinien
  6
Continuous
 62
     7
100
AcDbPolyline
 90
        2
 70
     0
 43
0.00025
 10
0.1534809571961618
 20
0.2749965197269337
 10
0.1497772534924592
 20
0.3046261493565651
  0
LWPOLYLINE
  5
A4
330
1F
100
AcDbEntity
  8
Schneidelinien
  6
Continuous
 62
     7
100
AcDbPolyline
 90
        2
 70
     0
 43
0.00025
 10
0.1497772534924592
 20
0.3046261493565651
 10
0.179406883122088
 20
0.3037002234306383
  0
LWPOLYLINE
  5
A5
330
1F
100
AcDbEntity
  8
Schneidelinien
  6
Continuous
 62
     7
100
AcDbPolyline
 90
        2
 70
     0
 43
0.00025
 10
0.2238513275665363
 20
0.1861076308380442
 10
0.2201476238628292
 20
0.1768483715787858
  0
LWPOLYLINE
  5
A6
330
1F
100
AcDbEntity
  8
Schneidelinien
  6
Continuous
 62
     7
100
AcDbPolyline
 90
        2
 70
     0
 43
0.00025
 10
0.1544068831220907
 20
0.0805520752824868
 10
0.1312587349739419
 20
0.0620335567639697
  0
LWPOLYLINE
  5
A7
330
1F
100
AcDbEntity
  8
Schneidelinien
  6
Continuous
 62
     7
100
AcDbPolyline
 90
        2
 70
     0
 43
0.00025
 10
0.1312587349739419
 20
0.0620335567639697
 10
0.1182957720109766
 20
0.0888854086158209
  0
LWPOLYLINE
  5
A8
330
1F
100
AcDbEntity
  8
Schneidelinien
  6
Continuous
 62
     7
100
AcDbPolyline
 90
        2
 70
     0
 43
0.00025
 10
0.173851327566532
 20
0.0472187419491553
 10
0.1432957720109788
 20
0.0518483715787846
  0
LWPOLYLINE
  5
A9
330
1F
100
AcDbEntity
  8
Schneidelinien
  6
Continuous
 62
     7
100
AcDbPolyline
 90
        2
 70
     0
 43
0.00025
 10
0.1432957720109788
 20
0.0518483715787846
 10
0.1544068831220907
 20
0.0805520752824868
  0
LWPOLYLINE
  5
AA
330
1F
100
AcDbEntity
  8
Schneidelinien
  6
Continuous
 62
     7
100
AcDbPolyline
 90
        2
 70
     0
 43
0.00025
 10
0.2794068831220921
 20
0.0861076308380427
 10
0.3007031794183871
 20
0.0657372604676721
  0
LWPOLYLINE
  5
AB
330
1F
100
AcDbEntity
  8
Schneidelinien
  6
Continuous
 62
     7
100
AcDbPolyline
 90
        2
 70
     0
 43
0.00025
 10
0.3007031794183871
 20
0.0657372604676721
 10
0.2757031794183894
 20
0.0499965197269309
  0
LWPOLYLINE
  5
AC
330
1F
100
AcDbEntity
  8
Schneidelinien
  6
Continuous
 62
     7
100
AcDbPolyline
 90
        2
 70
     0
 43
0.00025
 10
0.2414439201591286
 20
0.0351817049121163
 10
0.2118142905294999
 20
0.0259224456528578
  0
LWPOLYLINE
  5
AD
330
1F
100
AcDbEntity
  8
Schneidelinien
  6
Continuous
 62
     7
100
AcDbPolyline
 90
        2
 70
     0
 43
0.00025
 10
0.2118142905294999
 20
0.0259224456528578
 10
0.210888364603571
 20
0.0555520752824868
  0
LWPOLYLINE
  5
AE
330
1F
100
AcDbEntity
  8
Schneidelinien
  6
Continuous
 62
     7
100
AcDbPolyline
 90
        2
 70
     0
 43
0.00025
 10
0.2247772534924607
 20
0.1768483715787858
 10
0.2368142905294971
 20
0.1759224456528589
  0
LWPOLYLINE
  5
AF
330
1F
100
AcDbEntity
  8
Schneidelinien
  6
Continuous
 62
     7
100
AcDbPolyline
 90
        2
 70
     0
 43
0.00025
 10
0.2507031794183873
 20
0.1648113345417491
 10
0.2432957720109775
 20
0.1444409641713763
  0
LWPOLYLINE
  5
B0
330
1F
100
AcDbEntity
  8
Schneidelinien
  6
Continuous
 62
     7
100
AcDbPolyline
 90
        2
 70
     0
 43
0.00025
 10
0.2738513275665361
 20
0.222218741949156
 10
0.3025550312702404
 20
0.2111076308380441
  0
LWPOLYLINE
  5
B1
330
1F
100
AcDbEntity
  8
Schneidelinien
  6
Continuous
 62
     7
100
AcDbPolyline
 90
        2
 70
     0
 43
0.00025
 10
0.3025550312702404
 20
0.2111076308380441
 10
0.2858883646035725
 20
0.1861076308380442
  0
LWPOLYLINE
  5
B2
330
1F
100
AcDbEntity
  8
Schneidelinien
  6
Continuous
 62
     7
100
AcDbPolyline
 90
        2
 70
     0
 43
0.00025
 10
0.2858883646035725
 20
0.1861076308380442
 10
0.284962438677648
 20
0.1546261493565641
  0
LWPOLYLINE
  5
B3
330
1F
100
AcDbEntity
  8
Schneidelinien
  6
Continuous
 62
     7
100
AcDbPolyline
 90
        2
 70
     0
 43
0.00025
 10
0.284962438677648
 20
0.1546261493565641
 10
0.2544068831220899
 20
0.1620335567639714
  0
LWPOLYLINE
  5
B4
330
1F
100
AcDbEntity
  8
Schneidelinien
  6
Continuous
 62
     7
100
AcDbPolyline
 90
        2
 70
     0
 43
0.00025
 10
0.3108883646035746
 20
0.3018483715787871
 10
0.3368142905295012
 20
0.3166631863936016
  0
LWPOLYLINE
  5
B5
330
1F
100
AcDbEntity
  8
Schneidelinien
  6
Continuous
 62
     7
100
AcDbPolyline
 90
        2
 70
     0
 43
0.00025
 10
0.3368142905295012
 20
0.3166631863936016
 10
0.3432957720109816
 20
0.2870335567639725
  0
LWPOLYLINE
  5
B6
330
1F
100
AcDbEntity
  8
Schneidelinien
  6
Continuous
 62
     7
100
AcDbPolyline
 90
        2
 70
     0
 43
0.00025
 10
0.0395920683072725
 20
0.2370335567639706
 10
0.0358883646035698
 20
0.266663186393602
  0
LWPOLYLINE
  5
B7
330
1F
100
AcDbEntity
  8
Schneidelinien
  6
Continuous
 62
     7
100
AcDbPolyline
 90
        2
 70
     0
 43
0.00025
 10
0.0358883646035698
 20
0.266663186393602
 10
0.0664439201591235
 20
0.2657372604676752
  0
LWPOLYLINE
  5
B8
330
1F
100
AcDbEntity
  8
Schneidelinien
  6
Continuous
 62
     7
100
AcDbPolyline
 90
        2
 70
     0
 43
0.00025
 10
0.1099624386776424
 20
0.1481446678750812
 10
0.0969994757146816
 20
0.1212928160232302
  0
LWPOLYLINE
  5
B9
330
1F
100
AcDbEntity
  8
Schneidelinien
  6
Continuous
 62
     7
100
AcDbPolyline
 90
        2
 70
     0
 43
0.00025
 10
0.0969994757146816
 20
0.1212928160232302
 10
0.0738513275665328
 20
0.1407372604676739
  0
LWPOLYLINE
  5
BA
330
1F
100
AcDbEntity
  8
Schneidelinien
  6
Continuous
 62
     7
100
AcDbPolyline
 90
        2
 70
     0
 43
0.00025
 10
0.0932957720109789
 20
0.3240705938010089
 10
0.12014762386283
 20
0.3398113345417502
  0
LWPOLYLINE
  5
BB
330
1F
100
AcDbEntity
  8
Schneidelinien
  6
Continuous
 62
     7
100
AcDbPolyline
 90
        2
 70
     0
 43
0.00025
 10
0.12014762386283
 20
0.3398113345417502
 10
0.1257031794183864
 20
0.3092557789861944
  0
LWPOLYLINE
  5
BC
330
1F
100
AcDbEntity
  8
Schneidelinien
  6
Continuous
 62
     7
100
AcDbPolyline
 90
        2
 70
     0
 43
0.00025
 10
0.2988513275665382
 20
0.337959482689899
 10
0.2599624386776459
 20
0.337959482689899
  0
LWPOLYLINE
  5
BD
330
1F
100
AcDbEntity
  8
Schneidelinien
  6
Continuous
 62
     7
100
AcDbPolyline
 90
        2
 70
     0
 43
0.00025
 10
0.3108883646035746
 20
0.3018483715787871
 10
0.2988513275665382
 20
0.337959482689899
  0
LWPOLYLINE
  5
BE
330
1F
100
AcDbEntity
  8
Schneidelinien
  6
Continuous
 62
     7
100
AcDbPolyline
 90
        2
 70
     0
 43
0.00025
 10
0.2417370190133766
 20
0.3322040870064472
 10
0.2599624386776459
 20
0.337959482689899
  0
LWPOLYLINE
  5
BF
330
1F
100
AcDbEntity
  8
Schneidelinien
  6
Continuous
 62
     7
100
AcDbPolyline
 90
        2
 70
     0
 43
0.00025
 10
0.2613337744684116
 20
0.2365245169184369
 10
0.2738513275665361
 20
0.222218741949156
  0
LWPOLYLINE
  5
C0
330
1F
100
AcDbEntity
  8
Schneidelinien
  6
Continuous
 62
     7
100
AcDbPolyline
 90
        2
 70
     0
 43
0.00025
 10
0.2826049617467817
 20
0.2484448827657418
 10
0.2757031794183894
 20
0.2435150382454535
  0
LWPOLYLINE
  5
C1
330
1F
100
AcDbEntity
  8
Schneidelinien
  6
Continuous
 62
     7
100
AcDbPolyline
 90
        2
 70
     0
 43
0.00025
 10
0.2349624386776438
 20
0.222218741949156
 10
0.2393839950654989
 20
0.2284089208921419
  0
LWPOLYLINE
  5
C2
330
1F
100
AcDbEntity
  8
Schneidelinien
  6
Continuous
 62
     7
100
AcDbPolyline
 90
        2
 70
     0
 43
0.00025
 10
0.2367769332875253
 20
0.2303839676936313
 10
0.2349624386776438
 20
0.222218741949156
  0
LWPOLYLINE
  5
C3
330
1F
100
AcDbEntity
  8
Schneidelinien
  6
Continuous
 62
     7
100
AcDbPolyline
 90
        2
 70
     0
 43
0.00025
 10
0.1664439201591271
 20
0.2416631863936022
 10
0.1724545382857839
 20
0.2366543379547194
  0
LWPOLYLINE
  5
C4
330
1F
100
AcDbEntity
  8
Schneidelinien
  6
Continuous
 62
     7
100
AcDbPolyline
 90
        2
 70
     0
 43
0.00025
 10
0.1312587349739419
 20
0.2722187419491581
 10
0.1312587349739468
 20
0.2632097329401412
  0
LWPOLYLINE
  5
C5
330
1F
100
AcDbEntity
  8
Schneidelinien
  6
Continuous
 62
     7
100
AcDbPolyline
 90
        2
 70
     0
 43
0.00025
 10
0.1471088370445196
 20
0.2558801592719872
 10
0.1534809571961618
 20
0.2749965197269337
  0
LWPOLYLINE
  5
C6
330
1F
100
AcDbEntity
  8
Schneidelinien
  6
Continuous
 62
     7
100
AcDbPolyline
 90
        2
 70
     0
 43
0.00025
 10
0.1238168516012038
 20
0.1933426584188164
 10
0.1219994757146837
 20
0.1842557789861931
  0
LWPOLYLINE
  5
C7
330
1F
100
AcDbEntity
  8
Schneidelinien
  6
Continuous
 62
     7
100
AcDbPolyline
 90
        2
 70
     0
 43
0.00025
 10
0.1219994757146837
 20
0.1842557789861931
 10
0.129144415930491
 20
0.1740487215350383
  0
LWPOLYLINE
  5
C8
330
1F
100
AcDbEntity
  8
Schneidelinien
  6
Continuous
 62
     7
100
AcDbPolyline
 90
        2
 70
     0
 43
0.00025
 10
0.1309173113860166
 20
0.1554333192519105
 10
0.1099624386776424
 20
0.1481446678750812
  0
LWPOLYLINE
  5
C9
330
1F
100
AcDbEntity
  8
Schneidelinien
  6
Continuous
 62
     7
100
AcDbPolyline
 90
        2
 70
     0
 43
0.00025
 10
0.179406883122088
 20
0.1092557789861913
 10
0.1864027678957568
 20
0.1127537213730231
  0
LWPOLYLINE
  5
CA
330
1F
100
AcDbEntity
  8
Schneidelinien
  6
Continuous
 62
     7
100
AcDbPolyline
 90
        2
 70
     0
 43
0.00025
 10
0.2488513275665339
 20
0.3018483715787871
 10
0.2145920683072732
 20
0.2870335567639725
  0
LWPOLYLINE
  5
CB
330
1F
100
AcDbEntity
  8
Schneidelinien
  6
Continuous
 62
     7
100
AcDbPolyline
 90
        2
 70
     0
 43
0.00025
 10
0.2098254673868353
 20
0.1125814419272385
 10
0.2145920683072732
 20
0.09351503824545
  0
LWPOLYLINE
  5
CC
330
1F
100
AcDbEntity
  8
Schneidelinien
  6
Continuous
 62
     7
100
AcDbPolyline
 90
        2
 70
     0
 43
0.00025
 10
0.2145920683072732
 20
0.09351503824545
 10
0.2201095721124448
 20
0.1128263015635626
  0
LWPOLYLINE
  5
CD
330
1F
100
AcDbEntity
  8
Schneidelinien
  6
Continuous
 62
     7
100
AcDbPolyline
 90
        2
 70
     0
 43
0.00025
 10
0.2293449581397827
 20
0.1194763498755554
 10
0.2488513275665339
 20
0.1083298530602669
  0
LWPOLYLINE
  5
CE
330
1F
100
AcDbEntity
  8
Schneidelinien
  6
Continuous
 62
     7
100
AcDbPolyline
 90
        2
 70
     0
 43
0.00025
 10
0.210888364603571
 20
0.2499965197269339
 10
0.2414439201591286
 20
0.2268483715787854
  0
LWPOLYLINE
  5
CF
330
1F
100
AcDbEntity
  8
Schneidelinien
  6
Continuous
 62
     7
100
AcDbPolyline
 90
        2
 70
     0
 43
0.00025
 10
0.2414439201591286
 20
0.2268483715787854
 10
0.2757031794183894
 20
0.2435150382454535
  0
LWPOLYLINE
  5
D0
330
1F
100
AcDbEntity
  8
Schneidelinien
  6
Continuous
 62
     7
100
AcDbPolyline
 90
        2
 70
     0
 43
0.00025
 10
0.2488513275665339
 20
0.3018483715787871
 10
0.2451476238628317
 20
0.3061693592331035
  0
LWPOLYLINE
  5
D1
330
1F
100
AcDbEntity
  8
Schneidelinien
  6
Continuous
 62
     7
100
AcDbPolyline
 90
        2
 70
     0
 43
0.00025
 10
0.2451476238628317
 20
0.3083298530602675
 10
0.2451476238628317
 20
0.3002467699771868
  0
LWPOLYLINE
  5
D2
330
1F
100
AcDbEntity
  8
Schneidelinien
  6
Continuous
 62
     7
100
AcDbPolyline
 90
        2
 70
     0
 43
0.00025
 10
0.2395920683072753
 20
0.3472187419491574
 10
0.2071846608998683
 20
0.362033556763972
  0
LWPOLYLINE
  5
D3
330
1F
100
AcDbEntity
  8
Schneidelinien
  6
Continuous
 62
     7
100
AcDbPolyline
 90
        2
 70
     0
 43
0.00025
 10
0.2071846608998683
 20
0.362033556763972
 10
0.1757031794183853
 20
0.3398113345417502
  0
LWPOLYLINE
  5
D4
330
1F
100
AcDbEntity
  8
Schneidelinien
  6
Continuous
 62
     7
100
AcDbPolyline
 90
        2
 70
     0
 43
0.00025
 10
0.1757031794183853
 20
0.3398113345417502
 10
0.179406883122088
 20
0.3037002234306383
  0
LWPOLYLINE
  5
D5
330
1F
100
AcDbEntity
  8
Schneidelinien
  6
Continuous
 62
     7
100
AcDbPolyline
 90
        2
 70
     0
 43
0.00025
 10
0.2451476238628317
 20
0.3083298530602675
 10
0.2395920683072753
 20
0.3472187419491574
  0
LWPOLYLINE
  5
D6
330
1F
100
AcDbEntity
  8
Schneidelinien
  6
Continuous
 62
     7
100
AcDbPolyline
 90
        2
 70
     0
 43
0.00025
 10
0.173851327566532
 20
0.2407372604676755
 10
0.1618142905294956
 20
0.2055520752824903
  0
LWPOLYLINE
  5
D7
330
1F
100
AcDbEntity
  8
Schneidelinien
  6
Continuous
 62
     7
100
AcDbPolyline
 90
        2
 70
     0
 43
0.00025
 10
0.1275550312702348
 20
0.1907372604676735
 10
0.1312587349739419
 20
0.1518483715787861
  0
LWPOLYLINE
  5
D8
330
1F
100
AcDbEntity
  8
Schneidelinien
  6
Continuous
 62
     7
100
AcDbPolyline
 90
        2
 70
     0
 43
0.00025
 10
0.1312587349739419
 20
0.1518483715787861
 10
0.1062587349739402
 20
0.1249965197269326
  0
LWPOLYLINE
  5
D9
330
1F
100
AcDbEntity
  8
Schneidelinien
  6
Continuous
 62
     7
100
AcDbPolyline
 90
        2
 70
     0
 43
0.00025
 10
0.1062587349739402
 20
0.1249965197269326
 10
0.1182957720109766
 20
0.0888854086158209
  0
LWPOLYLINE
  5
DA
330
1F
100
AcDbEntity
  8
Schneidelinien
  6
Continuous
 62
     7
100
AcDbPolyline
 90
        2
 70
     0
 43
0.00025
 10
0.173851327566532
 20
0.0472187419491553
 10
0.210888364603571
 20
0.0555520752824868
  0
LWPOLYLINE
  5
DB
330
1F
100
AcDbEntity
  8
Schneidelinien
  6
Continuous
 62
     7
100
AcDbPolyline
 90
        2
 70
     0
 43
0.00025
 10
0.2414439201591286
 20
0.0351817049121163
 10
0.2757031794183894
 20
0.0499965197269309
  0
LWPOLYLINE
  5
DC
330
1F
100
AcDbEntity
  8
Schneidelinien
  6
Continuous
 62
     7
100
AcDbPolyline
 90
        2
 70
     0
 43
0.00025
 10
0.2794068831220921
 20
0.0861076308380427
 10
0.2488513275665339
 20
0.1083298530602669
  0
LWPOLYLINE
  5
DD
330
1F
100
AcDbEntity
  8
Schneidelinien
  6
Continuous
 62
     7
100
AcDbPolyline
 90
        2
 70
     0
 43
0.00025
 10
0.1682957720109809
 20
0.1444409641713763
 10
0.1868142905294977
 20
0.1120335567639693
  0
LWPOLYLINE
  5
DE
330
1F
100
AcDbEntity
  8
Schneidelinien
  6
Continuous
 62
     7
100
AcDbPolyline
 90
        2
 70
     0
 43
0.00025
 10
0.2247772534924607
 20
0.1768483715787858
 10
0.1868142905294977
 20
0.1768483715787858
  0
LWPOLYLINE
  5
DF
330
1F
100
AcDbEntity
  8
Schneidelinien
  6
Continuous
 62
     7
100
AcDbPolyline
 90
        2
 70
     0
 43
0.00025
 10
0.1868142905294977
 20
0.1120335567639693
 10
0.2257031794183851
 20
0.1129594826898962
  0
LWPOLYLINE
  5
E0
330
1F
100
AcDbEntity
  8
Schneidelinien
  6
Continuous
 62
     7
100
AcDbPolyline
 90
        2
 70
     0
 43
0.00025
 10
0.2257031794183851
 20
0.1129594826898962
 10
0.2432957720109775
 20
0.1444409641713763
  0
LWPOLYLINE
  5
E1
330
1F
100
AcDbEntity
  8
Schneidelinien
  6
Continuous
 62
     7
100
AcDbPolyline
 90
        2
 70
     0
 43
0.00025
 10
0.2238513275665363
 20
0.1861076308380442
 10
0.2544068831220899
 20
0.1620335567639714
  0
LWPOLYLINE
  5
E2
330
1F
100
AcDbEntity
  8
Schneidelinien
  6
Continuous
 62
     7
100
AcDbPolyline
 90
        2
 70
     0
 43
0.00025
 10
0.3488513275665376
 20
0.2499965197269339
 10
0.3432957720109816
 20
0.2870335567639725
  0
LWPOLYLINE
  5
E3
330
1F
100
AcDbEntity
  8
Schneidelinien
  6
Continuous
 62
     7
100
AcDbPolyline
 90
        2
 70
     0
 43
0.00025
 10
0.2794068831220921
 20
0.2796261493565653
 10
0.2831105868257947
 20
0.2435150382454535
  0
LWPOLYLINE
  5
E4
330
1F
100
AcDbEntity
  8
Schneidelinien
  6
Continuous
 62
     7
100
AcDbPolyline
 90
        2
 70
     0
 43
0.00025
 10
0.2831105868257947
 20
0.2435150382454535
 10
0.3182957720109795
 20
0.2287002234306389
  0
LWPOLYLINE
  5
E5
330
1F
100
AcDbEntity
  8
Schneidelinien
  6
Continuous
 62
     7
100
AcDbPolyline
 90
        2
 70
     0
 43
0.00025
 10
0.3182957720109795
 20
0.2287002234306389
 10
0.3488513275665376
 20
0.2499965197269339
  0
LWPOLYLINE
  5
E6
330
1F
100
AcDbEntity
  8
Schneidelinien
  6
Continuous
 62
     7
100
AcDbPolyline
 90
        2
 70
     0
 43
0.00025
 10
0.0969994757146816
 20
0.212033556763971
 10
0.1275550312702348
 20
0.1907372604676735
  0
LWPOLYLINE
  5
E7
330
1F
100
AcDbEntity
  8
Schneidelinien
  6
Continuous
 62
     7
100
AcDbPolyline
 90
        2
 70
     0
 43
0.00025
 10
0.1842501879653947
 20
0.1165207362511492
 10
0.179406883122088
 20
0.1092557789861913
  0
LWPOLYLINE
  5
E8
330
1F
100
AcDbEntity
  8
Schneidelinien
  6
Continuous
 62
     7
100
AcDbPolyline
 90
        2
 70
     0
 43
0.00025
 10
0.1664439201591271
 20
0.2416631863936022
 10
0.1349624386776446
 20
0.2648113345417484
  0
LWPOLYLINE
  5
E9
330
1F
100
AcDbEntity
  8
Schneidelinien
  6
Continuous
 62
     7
100
AcDbPolyline
 90
        2
 70
     0
 43
0.00025
 10
0.1349624386776446
 20
0.2648113345417484
 10
0.1007031794183843
 20
0.2499965197269339
  0
LWPOLYLINE
  5
EA
330
1F
100
AcDbEntity
  8
Schneidelinien
  6
Continuous
 62
     7
100
AcDbPolyline
 90
        2
 70
     0
 43
0.00025
 10
0.0395920683072725
 20
0.2370335567639706
 10
0.0599624386776426
 20
0.2037002234306368
  0
LWPOLYLINE
  5
EB
330
1F
100
AcDbEntity
  8
Schneidelinien
  6
Continuous
 62
     7
100
AcDbPolyline
 90
        2
 70
     0
 43
0.00025
 10
0.0599624386776426
 20
0.2037002234306368
 10
0.0488513275665307
 20
0.1694409641713784
  0
LWPOLYLINE
  5
EC
330
1F
100
AcDbEntity
  8
Schneidelinien
  6
Continuous
 62
     7
100
AcDbPolyline
 90
        2
 70
     0
 43
0.00025
 10
0.0488513275665307
 20
0.1694409641713784
 10
0.0738513275665328
 20
0.1407372604676739
  0
LWPOLYLINE
  5
ED
330
1F
100
AcDbEntity
  8
Schneidelinien
  6
Continuous
 62
     7
100
AcDbPolyline
 90
        2
 70
     0
 43
0.00025
 10
0.0627402164554208
 20
0.3018483715787871
 10
0.0664439201591235
 20
0.2657372604676752
  0
LWPOLYLINE
  5
EE
330
1F
100
AcDbEntity
  8
Schneidelinien
  6
Continuous
 62
     7
100
AcDbPolyline
 90
        2
 70
     0
 43
0.00025
 10
0.0932957720109789
 20
0.3240705938010089
 10
0.0627402164554208
 20
0.3018483715787871
  0
LWPOLYLINE
  5
EF
330
1F
100
AcDbEntity
  8
Schneidelinien
  6
Continuous
 62
     7
100
AcDbPolyline
 90
        2
 70
     0
 43
0.00025
 10
0.1312587349739419
 20
0.2722187419491581
 10
0.1257031794183864
 20
0.3092557789861944
  0
LWPOLYLINE
  5
F2
330
1F
100
AcDbEntity
  8
Knicklinien hinten
  6
Strichpunktlinie
 62
     7
100
AcDbPolyline
 90
        2
 70
     0
 43
0.00025
 10
0.3342624927370484
 20
0.3924476476546045
 10
0.3629661964407532
 20
0.6730032032101629
  0
LWPOLYLINE
  5
F3
330
1F
100
AcDbEntity
  8
Knicklinien hinten
  6
Strichpunktlinie
 62
     7
100
AcDbPolyline
 90
        2
 70
     0
 43
0.00025
 10
0.3833365668111242
 20
0.4007809809879385
 10
0.4194476779222383
 20
0.6804106106175701
  0
LWPOLYLINE
  5
F4
330
1F
100
AcDbEntity
  8
Knicklinien hinten
  6
Strichpunktlinie
 62
     7
100
AcDbPolyline
 90
        2
 70
     0
 43
0.00025
 10
0.4324106408851992
 20
0.4081883883953458
 10
0.4861143445889056
 20
0.6859661661731261
  0
LWPOLYLINE
  5
F5
330
1F
100
AcDbEntity
  8
Knicklinien hinten
  6
Strichpunktlinie
 62
     7
100
AcDbPolyline
 90
        2
 70
     0
 43
0.00025
 10
0.4824106408851985
 20
0.4137439439509018
 10
0.5416699001444614
 20
0.6887439439509042
  0
LWPOLYLINE
  5
F6
330
1F
100
AcDbEntity
  8
Knicklinien hinten
  6
Strichpunktlinie
 62
     7
100
AcDbPolyline
 90
        2
 70
     0
 43
0.00025
 10
0.5314847149592739
 20
0.415595795802753
 10
0.6064847149592749
 20
0.6887439439509042
  0
LWPOLYLINE
  5
F7
330
1F
100
AcDbEntity
  8
Knicklinien hinten
  6
Strichpunktlinie
 62
     7
100
AcDbPolyline
 90
        2
 70
     0
 43
0.00025
 10
0.5814847149592781
 20
0.4174476476546043
 10
0.6648180482926089
 20
0.6859661661731261
  0
LWPOLYLINE
  5
F8
330
1F
100
AcDbEntity
  8
Knicklinien hinten
  6
Strichpunktlinie
 62
     7
100
AcDbPolyline
 90
        2
 70
     0
 43
0.00025
 10
0.3728870259000257
 20
0.6864275191867185
 10
0.4084141336758203
 20
0.7002792790864201
  0
LWPOLYLINE
  5
F9
330
1F
100
AcDbEntity
  8
Knicklinien hinten
  6
Strichpunktlinie
 62
     7
100
AcDbPolyline
 90
        2
 70
     0
 43
0.00025
 10
0.2314712964737123
 20
0.6376613969223338
 10
0.2848841661739572
 20
0.6571352949123008
  0
LWPOLYLINE
  5
FA
330
1F
100
AcDbEntity
  8
Knicklinien hinten
  6
Strichpunktlinie
 62
     7
100
AcDbPolyline
 90
        2
 70
     0
 43
0.00025
 10
0.1801765099370126
 20
0.5815605188277049
 10
0.2271117852911929
 20
0.6280463717591499
  0
LWPOLYLINE
  5
FB
330
1F
100
AcDbEntity
  8
Knicklinien hinten
  6
Strichpunktlinie
 62
     7
100
AcDbPolyline
 90
        2
 70
     0
 43
0.00025
 10
0.141694999194157
 20
0.5220575205716931
 10
0.1734539311084192
 20
0.5690935938722905
  0
LWPOLYLINE
  5
FC
330
1F
100
AcDbEntity
  8
Knicklinien hinten
  6
Strichpunktlinie
 62
     7
100
AcDbPolyline
 90
        2
 70
     0
 43
0.00025
 10
0.1328937469254577
 20
0.4475814799970065
 10
0.1433856384345278
 20
0.5110368187835765
  0
LWPOLYLINE
  5
FD
330
1F
100
AcDbEntity
  8
Knicklinien hinten
  6
Strichpunktlinie
 62
     7
100
AcDbPolyline
 90
        2
 70
     0
 43
0.00025
 10
0.1408986575235032
 20
0.3832295700028403
 10
0.1266397269718356
 20
0.4371312718492271
  0
LWPOLYLINE
  5
FE
330
1F
100
AcDbEntity
  8
Knicklinien hinten
  6
Strichpunktlinie
 62
     7
100
AcDbPolyline
 90
        2
 70
     0
 43
0.00025
 10
0.3629661964407532
 20
0.6730032032101629
 10
0.2987364944831331
 20
0.6636945507525369
  0
LWPOLYLINE
  5
FF
330
1F
100
AcDbEntity
  8
Knicklinien vorne
  6
Punktlinie_ eng
 62
     7
100
AcDbPolyline
 90
        2
 70
     0
 43
0.00025
 10
0.2990773075518636
 20
0.6637439439509044
 10
0.3342624927370484
 20
0.3924476476546045
  0
LWPOLYLINE
  5
100
330
1F
100
AcDbEntity
  8
Knicklinien vorne
  6
Punktlinie_ eng
 62
     7
100
AcDbPolyline
 90
        2
 70
     0
 43
0.00025
 10
0.3629661964407532
 20
0.6730032032101629
 10
0.3833365668111242
 20
0.4007809809879385
  0
LWPOLYLINE
  5
101
330
1F
100
AcDbEntity
  8
Knicklinien vorne
  6
Punktlinie_ eng
 62
     7
100
AcDbPolyline
 90
        2
 70
     0
 43
0.00025
 10
0.4194476779222383
 20
0.6804106106175701
 10
0.4324106408851992
 20
0.4081883883953458
  0
LWPOLYLINE
  5
102
330
1F
100
AcDbEntity
  8
Knicklinien vorne
  6
Punktlinie_ eng
 62
     7
100
AcDbPolyline
 90
        2
 70
     0
 43
0.00025
 10
0.4824106408851985
 20
0.4137439439509018
 10
0.4861143445889056
 20
0.6859661661731261
  0
LWPOLYLINE
  5
103
330
1F
100
AcDbEntity
  8
Knicklinien vorne
  6
Punktlinie_ eng
 62
     7
100
AcDbPolyline
 90
        2
 70
     0
 43
0.00025
 10
0.5416699001444614
 20
0.6887439439509042
 10
0.5314847149592739
 20
0.415595795802753
  0
LWPOLYLINE
  5
104
330
1F
100
AcDbEntity
  8
Knicklinien vorne
  6
Punktlinie_ eng
 62
     7
100
AcDbPolyline
 90
        2
 70
     0
 43
0.00025
 10
0.5814847149592781
 20
0.4174476476546043
 10
0.6064847149592749
 20
0.6887439439509042
  0
LWPOLYLINE
  5
105
330
1F
100
AcDbEntity
  8
Knicklinien vorne
  6
Punktlinie_ eng
 62
     7
100
AcDbPolyline
 90
        2
 70
     0
 43
0.00025
 10
0.3850087368359355
 20
0.7605572089229659
 10
0.4149536846543454
 20
0.7357449986391951
  0
LWPOLYLINE
  5
106
330
1F
100
AcDbEntity
  8
Knicklinien vorne
  6
Punktlinie_ eng
 62
     7
100
AcDbPolyline
 90
        2
 70
     0
 43
0.00025
 10
0.3506631628831803
 20
0.748131398919377
 10
0.3450810029257868
 20
0.7094674287359186
  0
LWPOLYLINE
  5
107
330
1F
100
AcDbEntity
  8
Knicklinien vorne
  6
Punktlinie_ eng
 62
     7
100
AcDbPolyline
 90
        2
 70
     0
 43
0.00025
 10
0.3168272627572222
 20
0.7653453008475846
 10
0.2890409446446936
 20
0.7390671625348291
  0
LWPOLYLINE
  5
108
330
1F
100
AcDbEntity
  8
Knicklinien vorne
  6
Punktlinie_ eng
 62
     7
100
AcDbPolyline
 90
        2
 70
     0
 43
0.00025
 10
0.3450810029257868
 20
0.7094674287359186
 10
0.3728870259000257
 20
0.6864275191867185
  0
LWPOLYLINE
  5
109
330
1F
100
AcDbEntity
  8
Knicklinien vorne
  6
Punktlinie_ eng
 62
     7
100
AcDbPolyline
 90
        2
 70
     0
 43
0.00025
 10
0.2526381073419529
 20
0.7415732798980851
 10
0.2312685637619434
 20
0.7099782393816687
  0
LWPOLYLINE
  5
10A
330
1F
100
AcDbEntity
  8
Knicklinien vorne
  6
Punktlinie_ eng
 62
     7
100
AcDbPolyline
 90
        2
 70
     0
 43
0.00025
 10
0.3168272627572222
 20
0.7653453008475846
 10
0.3506631628831803
 20
0.748131398919377
  0
LWPOLYLINE
  5
10B
330
1F
100
AcDbEntity
  8
Knicklinien vorne
  6
Punktlinie_ eng
 62
     7
100
AcDbPolyline
 90
        2
 70
     0
 43
0.00025
 10
0.2890409446446936
 20
0.7390671625348291
 10
0.3060909551750691
 20
0.7044974457801667
  0
LWPOLYLINE
  5
10C
330
1F
100
AcDbEntity
  8
Knicklinien vorne
  6
Punktlinie_ eng
 62
     7
100
AcDbPolyline
 90
        2
 70
     0
 43
0.00025
 10
0.2312685637619434
 20
0.7099782393816687
 10
0.2476055993442557
 20
0.6759992895385237
  0
LWPOLYLINE
  5
10D
330
1F
100
AcDbEntity
  8
Knicklinien vorne
  6
Punktlinie_ eng
 62
     7
100
AcDbPolyline
 90
        2
 70
     0
 43
0.00025
 10
0.1720702329830713
 20
0.682070850051534
 10
0.1905461934095599
 20
0.6463195994738462
  0
LWPOLYLINE
  5
10E
330
1F
100
AcDbEntity
  8
Knicklinien vorne
  6
Punktlinie_ eng
 62
     7
100
AcDbPolyline
 90
        2
 70
     0
 43
0.00025
 10
0.1720702329830713
 20
0.682070850051534
 10
0.1345061351284663
 20
0.6759193332727567
  0
LWPOLYLINE
  5
10F
330
1F
100
AcDbEntity
  8
Knicklinien vorne
  6
Punktlinie_ eng
 62
     7
100
AcDbPolyline
 90
        2
 70
     0
 43
0.00025
 10
0.1345061351284663
 20
0.6759193332727567
 10
0.1282110002230144
 20
0.6378461300008155
  0
LWPOLYLINE
  5
110
330
1F
100
AcDbEntity
  8
Knicklinien vorne
  6
Punktlinie_ eng
 62
     7
100
AcDbPolyline
 90
        2
 70
     0
 43
0.00025
 10
0.1282110002230144
 20
0.6378461300008155
 10
0.1614561334374552
 20
0.6199192531245539
  0
LWPOLYLINE
  5
111
330
1F
100
AcDbEntity
  8
Knicklinien vorne
  6
Punktlinie_ eng
 62
     7
100
AcDbPolyline
 90
        2
 70
     0
 43
0.00025
 10
0.0972061582086457
 20
0.6178422849128576
 10
0.1282110002230144
 20
0.6378461300008155
  0
LWPOLYLINE
  5
112
330
1F
100
AcDbEntity
  8
Knicklinien vorne
  6
Punktlinie_ eng
 62
     7
100
AcDbPolyline
 90
        2
 70
     0
 43
0.00025
 10
0.0972061582086457
 20
0.6178422849128576
 10
0.0988556824971863
 20
0.5791985880005794
  0
LWPOLYLINE
  5
113
330
1F
100
AcDbEntity
  8
Knicklinien vorne
  6
Punktlinie_ eng
 62
     7
100
AcDbPolyline
 90
        2
 70
     0
 43
0.00025
 10
0.0988556824971863
 20
0.5791985880005794
 10
0.1306748658155149
 20
0.5624532449473526
  0
LWPOLYLINE
  5
114
330
1F
100
AcDbEntity
  8
Knicklinien vorne
  6
Punktlinie_ eng
 62
     7
100
AcDbPolyline
 90
        2
 70
     0
 43
0.00025
 10
0.0658341236751832
 20
0.5596633017875929
 10
0.0673614399271872
 20
0.5223233467348908
  0
LWPOLYLINE
  5
115
330
1F
100
AcDbEntity
  8
Knicklinien vorne
  6
Punktlinie_ eng
 62
     7
100
AcDbPolyline
 90
        2
 70
     0
 43
0.00025
 10
0.0673614399271872
 20
0.5223233467348908
 10
0.1025010819127173
 20
0.5052316528432292
  0
LWPOLYLINE
  5
116
330
1F
100
AcDbEntity
  8
Knicklinien vorne
  6
Punktlinie_ eng
 62
     7
100
AcDbPolyline
 90
        2
 70
     0
 43
0.00025
 10
0.0401658887261905
 20
0.4967581833701893
 10
0.0566251323450345
 20
0.461475491667473
  0
LWPOLYLINE
  5
117
330
1F
100
AcDbEntity
  8
Knicklinien vorne
  6
Punktlinie_ eng
 62
     7
100
AcDbPolyline
 90
        2
 70
     0
 43
0.00025
 10
0.0673614399271872
 20
0.5223233467348908
 10
0.0401658887261905
 20
0.4967581833701893
  0
LWPOLYLINE
  5
118
330
1F
100
AcDbEntity
  8
Knicklinien vorne
  6
Punktlinie_ eng
 62
     7
100
AcDbPolyline
 90
        2
 70
     0
 43
0.00025
 10
0.0566251323450345
 20
0.461475491667473
 10
0.0949022051476983
 20
0.4670362415347422
  0
LWPOLYLINE
  5
119
330
1F
100
AcDbEntity
  8
Knicklinien vorne
  6
Punktlinie_ eng
 62
     7
100
AcDbPolyline
 90
        2
 70
     0
 43
0.00025
 10
0.0566251323450345
 20
0.461475491667473
 10
0.0427316890840333
 20
0.4272932407030847
  0
LWPOLYLINE
  5
11A
330
1F
100
AcDbEntity
  8
Knicklinien vorne
  6
Punktlinie_ eng
 62
     7
100
AcDbPolyline
 90
        2
 70
     0
 43
0.00025
 10
0.0427316890840333
 20
0.4272932407030847
 10
0.0679505016102953
 20
0.3967772308348674
  0
LWPOLYLINE
  5
11B
330
1F
100
AcDbEntity
  8
Knicklinien vorne
  6
Punktlinie_ eng
 62
     7
100
AcDbPolyline
 90
        2
 70
     0
 43
0.00025
 10
0.0679505016102953
 20
0.3967772308348674
 10
0.1034978826572655
 20
0.40339730648863
  0
LWPOLYLINE
  5
11C
330
1F
100
AcDbEntity
  8
Knicklinien vorne
  6
Punktlinie_ eng
 62
     7
100
AcDbPolyline
 90
        2
 70
     0
 43
0.00025
 10
0.1179820928297844
 20
0.438292532401077
 10
0.1034978826572655
 20
0.40339730648863
  0
LWPOLYLINE
  5
11D
330
1F
100
AcDbEntity
  8
Knicklinien vorne
  6
Punktlinie_ eng
 62
     7
100
AcDbPolyline
 90
        2
 70
     0
 43
0.00025
 10
0.0949022051476983
 20
0.4670362415347422
 10
0.1025010819127173
 20
0.5052316528432292
  0
LWPOLYLINE
  5
11E
330
1F
100
AcDbEntity
  8
Knicklinien vorne
  6
Punktlinie_ eng
 62
     7
100
AcDbPolyline
 90
        2
 70
     0
 43
0.00025
 10
0.3060909551750691
 20
0.7044974457801667
 10
0.3450810029257868
 20
0.7094674287359186
  0
LWPOLYLINE
  5
11F
330
1F
100
AcDbEntity
  8
Knicklinien vorne
  6
Punktlinie_ eng
 62
     7
100
AcDbPolyline
 90
        2
 70
     0
 43
0.00025
 10
0.2859029454180902
 20
0.6743283551598586
 10
0.3060909551750691
 20
0.7044974457801667
  0
LWPOLYLINE
  5
120
330
1F
100
AcDbEntity
  8
Knicklinien vorne
  6
Punktlinie_ eng
 62
     7
100
AcDbPolyline
 90
        2
 70
     0
 43
0.00025
 10
0.292197511914063
 20
0.6703151948157737
 10
0.2987364944831331
 20
0.6636945507525369
  0
LWPOLYLINE
  5
121
330
1F
100
AcDbEntity
  8
Knicklinien vorne
  6
Punktlinie_ eng
 62
     7
100
AcDbPolyline
 90
        2
 70
     0
 43
0.00025
 10
0.2476055993442557
 20
0.6759992895385237
 10
0.284028709918172
 20
0.6662614879293287
  0
LWPOLYLINE
  5
122
330
1F
100
AcDbEntity
  8
Knicklinien vorne
  6
Punktlinie_ eng
 62
     7
100
AcDbPolyline
 90
        2
 70
     0
 43
0.00025
 10
0.2476055993442557
 20
0.6759992895385237
 10
0.2262360557642512
 20
0.6444042490221075
  0
LWPOLYLINE
  5
123
330
1F
100
AcDbEntity
  8
Knicklinien vorne
  6
Punktlinie_ eng
 62
     7
100
AcDbPolyline
 90
        2
 70
     0
 43
0.00025
 10
0.2262360557642512
 20
0.6444042490221075
 10
0.2314712964737123
 20
0.6376613969223338
  0
LWPOLYLINE
  5
124
330
1F
100
AcDbEntity
  8
Knicklinien vorne
  6
Punktlinie_ eng
 62
     7
100
AcDbPolyline
 90
        2
 70
     0
 43
0.00025
 10
0.1905461934095599
 20
0.6463195994738462
 10
0.2249525871758458
 20
0.6370503567396409
  0
LWPOLYLINE
  5
125
330
1F
100
AcDbEntity
  8
Knicklinien vorne
  6
Punktlinie_ eng
 62
     7
100
AcDbPolyline
 90
        2
 70
     0
 43
0.00025
 10
0.1614561334374552
 20
0.6199192531245539
 10
0.1713966677584287
 20
0.58402552123914
  0
LWPOLYLINE
  5
126
330
1F
100
AcDbEntity
  8
Knicklinien vorne
  6
Punktlinie_ eng
 62
     7
100
AcDbPolyline
 90
        2
 70
     0
 43
0.00025
 10
0.1614561334374552
 20
0.6199192531245539
 10
0.1905461934095599
 20
0.6463195994738462
  0
LWPOLYLINE
  5
127
330
1F
100
AcDbEntity
  8
Knicklinien vorne
  6
Punktlinie_ eng
 62
     7
100
AcDbPolyline
 90
        2
 70
     0
 43
0.00025
 10
0.1306748658155149
 20
0.5624532449473526
 10
0.1669149485393585
 20
0.5757142379355368
  0
LWPOLYLINE
  5
128
330
1F
100
AcDbEntity
  8
Knicklinien vorne
  6
Punktlinie_ eng
 62
     7
100
AcDbPolyline
 90
        2
 70
     0
 43
0.00025
 10
0.1669149485393585
 20
0.5757142379355368
 10
0.1734539311084192
 20
0.5690935938722905
  0
LWPOLYLINE
  5
129
330
1F
100
AcDbEntity
  8
Knicklinien vorne
  6
Punktlinie_ eng
 62
     7
100
AcDbPolyline
 90
        2
 70
     0
 43
0.00025
 10
0.1306748658155149
 20
0.5624532449473526
 10
0.132915157015578
 20
0.5245225229831284
  0
LWPOLYLINE
  5
12A
330
1F
100
AcDbEntity
  8
Knicklinien vorne
  6
Punktlinie_ eng
 62
     7
100
AcDbPolyline
 90
        2
 70
     0
 43
0.00025
 10
0.135542914005896
 20
0.5175352548102766
 10
0.1433856384345278
 20
0.5110368187835765
  0
LWPOLYLINE
  5
12B
330
1F
100
AcDbEntity
  8
Knicklinien vorne
  6
Punktlinie_ eng
 62
     7
100
AcDbPolyline
 90
        2
 70
     0
 43
0.00025
 10
0.0949022051476983
 20
0.4670362415347422
 10
0.1227082281219323
 20
0.4439963319855375
  0
LWPOLYLINE
  5
12C
330
1F
100
AcDbEntity
  8
Knicklinien vorne
  6
Punktlinie_ eng
 62
     7
100
AcDbPolyline
 90
        2
 70
     0
 43
0.00025
 10
0.1179820928297844
 20
0.438292532401077
 10
0.1266397269718356
 20
0.4371312718492271
  0
LWPOLYLINE
  5
12D
330
1F
100
AcDbEntity
  8
Knicklinien vorne
  6
Punktlinie_ eng
 62
     7
100
AcDbPolyline
 90
        2
 70
     0
 43
0.00025
 10
0.1034978826572655
 20
0.40339730648863
 10
0.1334428304756666
 20
0.3785850962048731
  0
LWPOLYLINE
  5
12E
330
1F
100
AcDbEntity
  8
Knicklinien vorne
  6
Punktlinie_ eng
 62
     7
100
AcDbPolyline
 90
        2
 70
     0
 43
0.00025
 10
0.132915157015578
 20
0.5245225229831284
 10
0.1025010819127173
 20
0.5052316528432292
  0
LWPOLYLINE
  5
12F
330
1F
100
AcDbEntity
  8
Knicklinien vorne
  6
Punktlinie_ eng
 62
     7
100
AcDbPolyline
 90
        2
 70
     0
 43
0.00025
 10
0.3342624927370484
 20
0.3924476476546045
 10
0.3833365668111242
 20
0.4007809809879385
  0
LWPOLYLINE
  5
130
330
1F
100
AcDbEntity
  8
Knicklinien vorne
  6
Punktlinie_ eng
 62
     7
100
AcDbPolyline
 90
        2
 70
     0
 43
0.00025
 10
0.3833365668111242
 20
0.4007809809879385
 10
0.4324106408851992
 20
0.4081883883953458
  0
LWPOLYLINE
  5
131
330
1F
100
AcDbEntity
  8
Knicklinien vorne
  6
Punktlinie_ eng
 62
     7
100
AcDbPolyline
 90
        2
 70
     0
 43
0.00025
 10
0.4324106408851992
 20
0.4081883883953458
 10
0.4824106408851985
 20
0.4137439439509018
  0
LWPOLYLINE
  5
132
330
1F
100
AcDbEntity
  8
Knicklinien vorne
  6
Punktlinie_ eng
 62
     7
100
AcDbPolyline
 90
        2
 70
     0
 43
0.00025
 10
0.4824106408851985
 20
0.4137439439509018
 10
0.5314847149592739
 20
0.415595795802753
  0
LWPOLYLINE
  5
133
330
1F
100
AcDbEntity
  8
Knicklinien vorne
  6
Punktlinie_ eng
 62
     7
100
AcDbPolyline
 90
        2
 70
     0
 43
0.00025
 10
0.5314847149592739
 20
0.415595795802753
 10
0.5814847149592781
 20
0.4174476476546043
  0
LWPOLYLINE
  5
134
330
1F
100
AcDbEntity
  8
Knicklinien vorne
  6
Punktlinie_ eng
 62
     7
100
AcDbPolyline
 90
        2
 70
     0
 43
0.00025
 10
0.5814847149592781
 20
0.4174476476546043
 10
0.6305587890333531
 20
0.415595795802753
  0
LWPOLYLINE
  5
135
330
1F
100
AcDbEntity
  8
Knicklinien vorne
  6
Punktlinie_ eng
 62
     7
100
AcDbPolyline
 90
        2
 70
     0
 43
0.00025
 10
0.1334428304756666
 20
0.3785850962048731
 10
0.1408986575235032
 20
0.3832295700028403
  0
LWPOLYLINE
  5
136
330
1F
100
AcDbEntity
  8
Schneidelinien
  6
Continuous
 62
     7
100
AcDbPolyline
 90
        2
 70
     0
 43
0.00025
 10
0.3629661964407532
 20
0.6730032032101629
 10
0.3667349407117647
 20
0.6819052534252927
  0
LWPOLYLINE
  5
137
330
1F
100
AcDbEntity
  8
Schneidelinien
  6
Continuous
 62
     7
100
AcDbPolyline
 90
        2
 70
     0
 43
0.00025
 10
0.1334428304756666
 20
0.3785850962048731
 10
0.1495329047466676
 20
0.3608144233168971
  0
LWPOLYLINE
  5
138
330
1F
100
AcDbEntity
  8
Schneidelinien
  6
Continuous
 62
     7
100
AcDbPolyline
 90
        2
 70
     0
 43
0.00025
 10
0.2938828112445507
 20
0.6744615625363072
 10
0.2859029454180902
 20
0.6743283551598586
  0
LWPOLYLINE
  5
139
330
1F
100
AcDbEntity
  8
Schneidelinien
  6
Continuous
 62
     7
100
AcDbPolyline
 90
        2
 70
     0
 43
0.00025
 10
0.2314712964737123
 20
0.6376613969223338
 10
0.244203610208325
 20
0.6284325566620839
  0
LWPOLYLINE
  5
13A
330
1F
100
AcDbEntity
  8
Schneidelinien
  6
Continuous
 62
     7
100
AcDbPolyline
 90
        2
 70
     0
 43
0.00025
 10
0.2314712964737123
 20
0.6376613969223338
 10
0.2255361542340478
 20
0.6346168472854478
  0
LWPOLYLINE
  5
13B
330
1F
100
AcDbEntity
  8
Schneidelinien
  6
Continuous
 62
     7
100
AcDbPolyline
 90
        2
 70
     0
 43
0.00025
 10
0.3728870259000257
 20
0.6864275191867185
 10
0.3643367847354667
 20
0.6849577418961739
  0
LWPOLYLINE
  5
13C
330
1F
100
AcDbEntity
  8
Schneidelinien
  6
Continuous
 62
     7
100
AcDbPolyline
 90
        2
 70
     0
 43
0.00025
 10
0.2928078019827481
 20
0.5272692399344365
 10
0.2990773075518636
 20
0.6637439439509044
  0
LWPOLYLINE
  5
13D
330
1F
100
AcDbEntity
  8
Schneidelinien
  6
Continuous
 62
     7
100
AcDbPolyline
 90
        2
 70
     0
 43
0.00025
 10
0.1266166248721153
 20
0.4453720283155181
 10
0.1266397269718356
 20
0.4371312718492271
  0
LWPOLYLINE
  5
13E
330
1F
100
AcDbEntity
  8
Schneidelinien
  6
Continuous
 62
     7
100
AcDbPolyline
 90
        2
 70
     0
 43
0.00025
 10
0.1179820928297844
 20
0.438292532401077
 10
0.1190845843003273
 20
0.4430377484190499
  0
LWPOLYLINE
  5
13F
330
1F
100
AcDbEntity
  8
Schneidelinien
  6
Continuous
 62
     7
100
AcDbPolyline
 90
        2
 70
     0
 43
0.00025
 10
0.132915157015578
 20
0.5245225229831284
 10
0.1317905292886926
 20
0.5161380003282142
  0
LWPOLYLINE
  5
140
330
1F
100
AcDbEntity
  8
Schneidelinien
  6
Continuous
 62
     7
100
AcDbPolyline
 90
        2
 70
     0
 43
0.00025
 10
0.135542914005896
 20
0.5175352548102766
 10
0.1412026715953703
 20
0.5221957450059814
  0
LWPOLYLINE
  5
141
330
1F
100
AcDbEntity
  8
Schneidelinien
  6
Continuous
 62
     7
100
AcDbPolyline
 90
        2
 70
     0
 43
0.00025
 10
0.1669149485393585
 20
0.5757142379355368
 10
0.1785154587140366
 20
0.5820268706352701
  0
LWPOLYLINE
  5
142
330
1F
100
AcDbEntity
  8
Schneidelinien
  6
Continuous
 62
     7
100
AcDbPolyline
 90
        2
 70
     0
 43
0.00025
 10
0.3074106408851978
 20
0.4137439439509018
 10
0.292807801982753
 20
0.5272692399344203
  0
LWPOLYLINE
  5
143
330
1F
100
AcDbEntity
  8
Schneidelinien
  6
Continuous
 62
     7
100
AcDbPolyline
 90
        2
 70
     0
 43
0.00025
 10
0.1713966677584287
 20
0.58402552123914
 10
0.1633344336013325
 20
0.5874387235977929
  0
LWPOLYLINE
  5
144
330
1F
100
AcDbEntity
  8
Schneidelinien
  6
Continuous
 62
     7
100
AcDbPolyline
 90
        2
 70
     0
 43
0.00025
 10
0.1594025409970482
 20
0.5806498602383844
 10
0.1669149485393585
 20
0.5757142379355368
  0
LWPOLYLINE
  5
145
330
1F
100
AcDbEntity
  8
Schneidelinien
  6
Continuous
 62
     7
100
AcDbPolyline
 90
        2
 70
     0
 43
0.00025
 10
0.2845175420643376
 20
0.6610465204910337
 10
0.292197511914063
 20
0.6703151948157737
  0
LWPOLYLINE
  5
146
330
1F
100
AcDbEntity
  8
Schneidelinien
  6
Continuous
 62
     7
100
AcDbPolyline
 90
        2
 70
     0
 43
0.00025
 10
0.3850087368359355
 20
0.7605572089229659
 10
0.4153411504446059
 20
0.7666884524305676
  0
LWPOLYLINE
  5
147
330
1F
100
AcDbEntity
  8
Schneidelinien
  6
Continuous
 62
     7
100
AcDbPolyline
 90
        2
 70
     0
 43
0.00025
 10
0.4153411504446059
 20
0.7666884524305676
 10
0.4149536846543454
 20
0.7357449986391951
  0
LWPOLYLINE
  5
148
330
1F
100
AcDbEntity
  8
Schneidelinien
  6
Continuous
 62
     7
100
AcDbPolyline
 90
        2
 70
     0
 43
0.00025
 10
0.3168272627572222
 20
0.7653453008475846
 10
0.3439411524640468
 20
0.7777508375799932
  0
LWPOLYLINE
  5
149
330
1F
100
AcDbEntity
  8
Schneidelinien
  6
Continuous
 62
     7
100
AcDbPolyline
 90
        2
 70
     0
 43
0.00025
 10
0.3439411524640468
 20
0.7777508375799932
 10
0.3506631628831803
 20
0.748131398919377
  0
LWPOLYLINE
  5
14A
330
1F
100
AcDbEntity
  8
Schneidelinien
  6
Continuous
 62
     7
100
AcDbPolyline
 90
        2
 70
     0
 43
0.00025
 10
0.2890409446446936
 20
0.7390671625348291
 10
0.2869431347523568
 20
0.7684624583935382
  0
LWPOLYLINE
  5
14B
330
1F
100
AcDbEntity
  8
Schneidelinien
  6
Continuous
 62
     7
100
AcDbPolyline
 90
        2
 70
     0
 43
0.00025
 10
0.2869431347523568
 20
0.7684624583935382
 10
0.3168272627572222
 20
0.7653453008475846
  0
LWPOLYLINE
  5
14C
330
1F
100
AcDbEntity
  8
Schneidelinien
  6
Continuous
 62
     7
100
AcDbPolyline
 90
        2
 70
     0
 43
0.00025
 10
0.2312685637619434
 20
0.7099782393816687
 10
0.2220612776602136
 20
0.7380495201096309
  0
LWPOLYLINE
  5
14D
330
1F
100
AcDbEntity
  8
Schneidelinien
  6
Continuous
 62
     7
100
AcDbPolyline
 90
        2
 70
     0
 43
0.00025
 10
0.2220612776602136
 20
0.7380495201096309
 10
0.2526381073419529
 20
0.7415732798980851
  0
LWPOLYLINE
  5
14E
330
1F
100
AcDbEntity
  8
Schneidelinien
  6
Continuous
 62
     7
100
AcDbPolyline
 90
        2
 70
     0
 43
0.00025
 10
0.1334428304756666
 20
0.3785850962048731
 10
0.1031104168670006
 20
0.3724538526972714
  0
LWPOLYLINE
  5
14F
330
1F
100
AcDbEntity
  8
Schneidelinien
  6
Continuous
 62
     7
100
AcDbPolyline
 90
        2
 70
     0
 43
0.00025
 10
0.1031104168670006
 20
0.3724538526972714
 10
0.1034978826572655
 20
0.40339730648863
  0
LWPOLYLINE
  5
150
330
1F
100
AcDbEntity
  8
Schneidelinien
  6
Continuous
 62
     7
100
AcDbPolyline
 90
        2
 70
     0
 43
0.00025
 10
0.2812787448913126
 20
0.6745524979617565
 10
0.284028709918172
 20
0.6662614879293287
  0
LWPOLYLINE
  5
151
330
1F
100
AcDbEntity
  8
Schneidelinien
  6
Continuous
 62
     7
100
AcDbPolyline
 90
        2
 70
     0
 43
0.00025
 10
0.1498458015567606
 20
0.7016883661681759
 10
0.1720702329830713
 20
0.682070850051534
  0
LWPOLYLINE
  5
152
330
1F
100
AcDbEntity
  8
Schneidelinien
  6
Continuous
 62
     7
100
AcDbPolyline
 90
        2
 70
     0
 43
0.00025
 10
0.1282110002230144
 20
0.6378461300008155
 10
0.1076366614947149
 20
0.660906312821205
  0
LWPOLYLINE
  5
153
330
1F
100
AcDbEntity
  8
Schneidelinien
  6
Continuous
 62
     7
100
AcDbPolyline
 90
        2
 70
     0
 43
0.00025
 10
0.1076366614947149
 20
0.660906312821205
 10
0.1345061351284663
 20
0.6759193332727567
  0
LWPOLYLINE
  5
154
330
1F
100
AcDbEntity
  8
Schneidelinien
  6
Continuous
 62
     7
100
AcDbPolyline
 90
        2
 70
     0
 43
0.00025
 10
0.0972061582086457
 20
0.6178422849128576
 10
0.1003233157546038
 20
0.6477264129177275
  0
LWPOLYLINE
  5
155
330
1F
100
AcDbEntity
  8
Schneidelinien
  6
Continuous
 62
     7
100
AcDbPolyline
 90
        2
 70
     0
 43
0.00025
 10
0.1003233157546038
 20
0.6477264129177275
 10
0.1282110002230144
 20
0.6378461300008155
  0
LWPOLYLINE
  5
156
330
1F
100
AcDbEntity
  8
Schneidelinien
  6
Continuous
 62
     7
100
AcDbPolyline
 90
        2
 70
     0
 43
0.00025
 10
0.0988556824971863
 20
0.5791985880005794
 10
0.0740237673517239
 20
0.5985716880441341
  0
LWPOLYLINE
  5
157
330
1F
100
AcDbEntity
  8
Schneidelinien
  6
Continuous
 62
     7
100
AcDbPolyline
 90
        2
 70
     0
 43
0.00025
 10
0.0740237673517239
 20
0.5985716880441341
 10
0.0972061582086457
 20
0.6178422849128576
  0
LWPOLYLINE
  5
158
330
1F
100
AcDbEntity
  8
Schneidelinien
  6
Continuous
 62
     7
100
AcDbPolyline
 90
        2
 70
     0
 43
0.00025
 10
0.2216118552374598
 20
0.6446283918240053
 10
0.2249525871758458
 20
0.6370503567396409
  0
LWPOLYLINE
  5
159
330
1F
100
AcDbEntity
  8
Schneidelinien
  6
Continuous
 62
     7
100
AcDbPolyline
 90
        2
 70
     0
 43
0.00025
 10
0.2232822212066595
 20
0.6408393742818185
 10
0.2262360557642512
 20
0.6444042490221075
  0
LWPOLYLINE
  5
15A
330
1F
100
AcDbEntity
  8
Schneidelinien
  6
Continuous
 62
     7
100
AcDbPolyline
 90
        2
 70
     0
 43
0.00025
 10
0.0673614399271872
 20
0.5223233467348908
 10
0.0439554746778375
 20
0.5405149129554108
  0
LWPOLYLINE
  5
15B
330
1F
100
AcDbEntity
  8
Schneidelinien
  6
Continuous
 62
     7
100
AcDbPolyline
 90
        2
 70
     0
 43
0.00025
 10
0.0439554746778375
 20
0.5405149129554108
 10
0.0658341236751832
 20
0.5596633017875929
  0
LWPOLYLINE
  5
15C
330
1F
100
AcDbEntity
  8
Schneidelinien
  6
Continuous
 62
     7
100
AcDbPolyline
 90
        2
 70
     0
 43
0.00025
 10
0.0401658887261905
 20
0.4967581833701893
 10
0.0373551038857807
 20
0.5267442461404204
  0
LWPOLYLINE
  5
15D
330
1F
100
AcDbEntity
  8
Schneidelinien
  6
Continuous
 62
     7
100
AcDbPolyline
 90
        2
 70
     0
 43
0.00025
 10
0.0373551038857807
 20
0.5267442461404204
 10
0.0673614399271872
 20
0.5223233467348908
  0
LWPOLYLINE
  5
15E
330
1F
100
AcDbEntity
  8
Schneidelinien
  6
Continuous
 62
     7
100
AcDbPolyline
 90
        2
 70
     0
 43
0.00025
 10
0.0566251323450345
 20
0.461475491667473
 10
0.0270873551786042
 20
0.4679131078806373
  0
LWPOLYLINE
  5
15F
330
1F
100
AcDbEntity
  8
Schneidelinien
  6
Continuous
 62
     7
100
AcDbPolyline
 90
        2
 70
     0
 43
0.00025
 10
0.0270873551786042
 20
0.4679131078806373
 10
0.0401658887261905
 20
0.4967581833701893
  0
LWPOLYLINE
  5
160
330
1F
100
AcDbEntity
  8
Schneidelinien
  6
Continuous
 62
     7
100
AcDbPolyline
 90
        2
 70
     0
 43
0.00025
 10
0.1227082281219323
 20
0.4439963319855375
 10
0.1150079850010171
 20
0.4419593419067271
  0
LWPOLYLINE
  5
161
330
1F
100
AcDbEntity
  8
Schneidelinien
  6
Continuous
 62
     7
100
AcDbPolyline
 90
        2
 70
     0
 43
0.00025
 10
0.0427316890840333
 20
0.4272932407030847
 10
0.028431643580531
 20
0.4535719474253099
  0
LWPOLYLINE
  5
162
330
1F
100
AcDbEntity
  8
Schneidelinien
  6
Continuous
 62
     7
100
AcDbPolyline
 90
        2
 70
     0
 43
0.00025
 10
0.028431643580531
 20
0.4535719474253099
 10
0.0566251323450345
 20
0.461475491667473
  0
LWPOLYLINE
  5
163
330
1F
100
AcDbEntity
  8
Schneidelinien
  6
Continuous
 62
     7
100
AcDbPolyline
 90
        2
 70
     0
 43
0.00025
 10
0.0679505016102953
 20
0.3967772308348674
 10
0.0375978147304448
 20
0.3978776715731909
  0
LWPOLYLINE
  5
164
330
1F
100
AcDbEntity
  8
Schneidelinien
  6
Continuous
 62
     7
100
AcDbPolyline
 90
        2
 70
     0
 43
0.00025
 10
0.0375978147304448
 20
0.3978776715731909
 10
0.0427316890840333
 20
0.4272932407030847
  0
LWPOLYLINE
  5
165
330
1F
100
AcDbEntity
  8
Schneidelinien
  6
Continuous
 62
     7
100
AcDbPolyline
 90
        2
 70
     0
 43
0.00025
 10
0.1034978826572655
 20
0.40339730648863
 10
0.0888711911770344
 20
0.3770375066816933
  0
LWPOLYLINE
  5
166
330
1F
100
AcDbEntity
  8
Schneidelinien
  6
Continuous
 62
     7
100
AcDbPolyline
 90
        2
 70
     0
 43
0.00025
 10
0.0888711911770344
 20
0.3770375066816933
 10
0.0679505016102953
 20
0.3967772308348674
  0
LWPOLYLINE
  5
167
330
1F
100
AcDbEntity
  8
Schneidelinien
  6
Continuous
 62
     7
100
AcDbPolyline
 90
        2
 70
     0
 43
0.00025
 10
0.4084141336758203
 20
0.7002792790864201
 10
0.4149536846543454
 20
0.7357449986391951
  0
LWPOLYLINE
  5
168
330
1F
100
AcDbEntity
  8
Schneidelinien
  6
Continuous
 62
     7
100
AcDbPolyline
 90
        2
 70
     0
 43
0.00025
 10
0.3850087368359355
 20
0.7605572089229659
 10
0.3506631628831803
 20
0.748131398919377
  0
LWPOLYLINE
  5
169
330
1F
100
AcDbEntity
  8
Schneidelinien
  6
Continuous
 62
     7
100
AcDbPolyline
 90
        2
 70
     0
 43
0.00025
 10
0.2890409446446936
 20
0.7390671625348291
 10
0.2526381073419529
 20
0.7415732798980851
  0
LWPOLYLINE
  5
16A
330
1F
100
AcDbEntity
  8
Schneidelinien
  6
Continuous
 62
     7
100
AcDbPolyline
 90
        2
 70
     0
 43
0.00025
 10
0.2476055993442557
 20
0.6759992895385237
 10
0.2859029454180902
 20
0.6743283551598586
  0
LWPOLYLINE
  5
16B
330
1F
100
AcDbEntity
  8
Schneidelinien
  6
Continuous
 62
     7
100
AcDbPolyline
 90
        2
 70
     0
 43
0.00025
 10
0.3060909551750691
 20
0.7044974457801667
 10
0.292197511914063
 20
0.6703151948157737
  0
LWPOLYLINE
  5
16C
330
1F
100
AcDbEntity
  8
Schneidelinien
  6
Continuous
 62
     7
100
AcDbPolyline
 90
        2
 70
     0
 43
0.00025
 10
0.3667349407117647
 20
0.6819052534252927
 10
0.3450810029257868
 20
0.7094674287359186
  0
LWPOLYLINE
  5
16D
330
1F
100
AcDbEntity
  8
Schneidelinien
  6
Continuous
 62
     7
100
AcDbPolyline
 90
        2
 70
     0
 43
0.00025
 10
0.2848841661739572
 20
0.6571352949123008
 10
0.284028709918172
 20
0.6662614879293287
  0
LWPOLYLINE
  5
16E
330
1F
100
AcDbEntity
  8
Schneidelinien
  6
Continuous
 62
     7
100
AcDbPolyline
 90
        2
 70
     0
 43
0.00025
 10
0.1905461934095599
 20
0.6463195994738462
 10
0.2262360557642512
 20
0.6444042490221075
  0
LWPOLYLINE
  5
16F
330
1F
100
AcDbEntity
  8
Schneidelinien
  6
Continuous
 62
     7
100
AcDbPolyline
 90
        2
 70
     0
 43
0.00025
 10
0.2312685637619434
 20
0.7099782393816687
 10
0.1922582427400457
 20
0.7122399406718514
  0
LWPOLYLINE
  5
170
330
1F
100
AcDbEntity
  8
Schneidelinien
  6
Continuous
 62
     7
100
AcDbPolyline
 90
        2
 70
     0
 43
0.00025
 10
0.1922582427400457
 20
0.7122399406718514
 10
0.1720702329830713
 20
0.682070850051534
  0
LWPOLYLINE
  5
171
330
1F
100
AcDbEntity
  8
Schneidelinien
  6
Continuous
 62
     7
100
AcDbPolyline
 90
        2
 70
     0
 43
0.00025
 10
0.1635742166009724
 20
0.5832922730199104
 10
0.1614561334374552
 20
0.6199192531245539
  0
LWPOLYLINE
  5
172
330
1F
100
AcDbEntity
  8
Schneidelinien
  6
Continuous
 62
     7
100
AcDbPolyline
 90
        2
 70
     0
 43
0.00025
 10
0.1306748658155149
 20
0.5624532449473526
 10
0.1635742166009724
 20
0.5832922730199104
  0
LWPOLYLINE
  5
173
330
1F
100
AcDbEntity
  8
Schneidelinien
  6
Continuous
 62
     7
100
AcDbPolyline
 90
        2
 70
     0
 43
0.00025
 10
0.2271117852911929
 20
0.6280463717591499
 10
0.2249525871758458
 20
0.6370503567396409
  0
LWPOLYLINE
  5
174
330
1F
100
AcDbEntity
  8
Schneidelinien
  6
Continuous
 62
     7
100
AcDbPolyline
 90
        2
 70
     0
 43
0.00025
 10
0.0988556824971863
 20
0.5791985880005794
 10
0.0658341236751832
 20
0.5596633017875929
  0
LWPOLYLINE
  5
175
330
1F
100
AcDbEntity
  8
Schneidelinien
  6
Continuous
 62
     7
100
AcDbPolyline
 90
        2
 70
     0
 43
0.00025
 10
0.135542914005896
 20
0.5175352548102766
 10
0.1025010819127173
 20
0.5052316528432292
  0
LWPOLYLINE
  5
176
330
1F
100
AcDbEntity
  8
Schneidelinien
  6
Continuous
 62
     7
100
AcDbPolyline
 90
        2
 70
     0
 43
0.00025
 10
0.1179820928297844
 20
0.438292532401077
 10
0.0949022051476983
 20
0.4670362415347422
  0
LWPOLYLINE
  5
177
330
1F
100
AcDbEntity
  8
Schneidelinien
  6
Continuous
 62
     7
100
AcDbPolyline
 90
        2
 70
     0
 43
0.00025
 10
0.1713966677584287
 20
0.58402552123914
 10
0.1801765099370126
 20
0.5815605188277049
  0
LWPOLYLINE
  5
178
330
1F
100
AcDbEntity
  8
Schneidelinien
  6
Continuous
 62
     7
100
AcDbPolyline
 90
        2
 70
     0
 43
0.00025
 10
0.132915157015578
 20
0.5245225229831284
 10
0.141694999194157
 20
0.5220575205716931
  0
LWPOLYLINE
  5
179
330
1F
100
AcDbEntity
  8
Schneidelinien
  6
Continuous
 62
     7
100
AcDbPolyline
 90
        2
 70
     0
 43
0.00025
 10
0.1227082281219323
 20
0.4439963319855375
 10
0.1328937469254577
 20
0.4475814799970065
  0
LWPOLYLINE
  5
17A
330
1F
100
AcDbEntity
  8
Schneidelinien
  6
Continuous
 62
     7
100
AcDbPolyline
 90
        2
 70
     0
 43
0.00025
 10
0.1495329047466676
 20
0.3608144233168971
 10
0.1408986575235032
 20
0.3832295700028425
  0
LWPOLYLINE
  5
17B
330
1F
100
AcDbEntity
  8
Schneidelinien
  6
Continuous
 62
     7
100
AcDbPolyline
 90
        2
 70
     0
 43
0.00025
 10
0.3342624927370484
 20
0.3924476476546045
 10
0.3074106408851978
 20
0.4137439439509018
  0
LWPOLYLINE
  5
17C
330
1F
100
AcDbEntity
  8
Schneidelinien
  6
Continuous
 62
     7
100
AcDbPolyline
 90
        2
 70
     0
 43
0.00025
 10
0.4084141336758203
 20
0.7002792790864201
 10
0.407211984585219
 20
0.6858232616231166
  0
LWPOLYLINE
  5
17D
330
1F
100
AcDbEntity
  8
Schneidelinien
  6
Continuous
 62
     7
100
AcDbPolyline
 90
        2
 70
     0
 43
0.00025
 10
0.3728870259000257
 20
0.6864275191867185
 10
0.3845256950310461
 20
0.6769780429832363
  0
LWPOLYLINE
  5
17E
330
1F
100
AcDbEntity
  8
Schneidelinien
  6
Continuous
 62
     7
100
AcDbPolyline
 90
        2
 70
     0
 43
0.00025
 10
0.2442036102083294
 20
0.6284325566620839
 10
0.2830275542690371
 20
0.6425874509871672
  0
LWPOLYLINE
  5
17F
330
1F
100
AcDbEntity
  8
Schneidelinien
  6
Continuous
 62
     7
100
AcDbPolyline
 90
        2
 70
     0
 43
0.00025
 10
0.1801765099370126
 20
0.5815605188277049
 10
0.1945547489724815
 20
0.5774593382005271
  0
LWPOLYLINE
  5
180
330
1F
100
AcDbEntity
  8
Schneidelinien
  6
Continuous
 62
     7
100
AcDbPolyline
 90
        2
 70
     0
 43
0.00025
 10
0.2271117852911929
 20
0.6280463717591499
 10
0.2310983758215342
 20
0.6136530464608445
  0
LWPOLYLINE
  5
181
330
1F
100
AcDbEntity
  8
Schneidelinien
  6
Continuous
 62
     7
100
AcDbPolyline
 90
        2
 70
     0
 43
0.00025
 10
0.2848841661739572
 20
0.6571352949123008
 10
0.2830275542690322
 20
0.6425874509871694
  0
LWPOLYLINE
  5
182
330
1F
100
AcDbEntity
  8
Schneidelinien
  6
Continuous
 62
     7
100
AcDbPolyline
 90
        2
 70
     0
 43
0.00025
 10
0.3845256950310506
 20
0.6769780429832363
 10
0.407211984585219
 20
0.6858232616231166
  0
LWPOLYLINE
  5
183
330
1F
100
AcDbEntity
  8
Schneidelinien
  6
Continuous
 62
     7
100
AcDbPolyline
 90
        2
 70
     0
 43
0.00025
 10
0.1945547489724815
 20
0.5774593382005294
 10
0.2310983758215342
 20
0.6136530464608422
  0
LWPOLYLINE
  5
184
330
1F
100
AcDbEntity
  8
Schneidelinien
  6
Continuous
 62
     7
100
AcDbPolyline
 90
        2
 70
     0
 43
0.00025
 10
0.1561384945840124
 20
0.5201610512787736
 10
0.1792412501102617
 20
0.5543770288598818
  0
LWPOLYLINE
  5
185
330
1F
100
AcDbEntity
  8
Schneidelinien
  6
Continuous
 62
     7
100
AcDbPolyline
 90
        2
 70
     0
 43
0.00025
 10
0.1466961194189729
 20
0.4511717581318813
 10
0.1547622332113421
 20
0.4999559056750911
  0
LWPOLYLINE
  5
186
330
1F
100
AcDbEntity
  8
Schneidelinien
  6
Continuous
 62
     7
100
AcDbPolyline
 90
        2
 70
     0
 43
0.00025
 10
0.1515123229804938
 20
0.3940652124039253
 10
0.1412070216428539
 20
0.4330213794268265
  0
LWPOLYLINE
  5
187
330
1F
100
AcDbEntity
  8
Schneidelinien
  6
Continuous
 62
     7
100
AcDbPolyline
 90
        2
 70
     0
 43
0.00025
 10
0.1408986575235032
 20
0.3832295700028403
 10
0.1515123229804938
 20
0.3940652124039185
  0
LWPOLYLINE
  5
188
330
1F
100
AcDbEntity
  8
Schneidelinien
  6
Continuous
 62
     7
100
AcDbPolyline
 90
        2
 70
     0
 43
0.00025
 10
0.1266397269718356
 20
0.4371312718492271
 10
0.1412070216428539
 20
0.4330213794268265
  0
LWPOLYLINE
  5
189
330
1F
100
AcDbEntity
  8
Schneidelinien
  6
Continuous
 62
     7
100
AcDbPolyline
 90
        2
 70
     0
 43
0.00025
 10
0.1328937469254577
 20
0.4475814799970065
 10
0.1466961194189729
 20
0.4511717581318766
  0
LWPOLYLINE
  5
18A
330
1F
100
AcDbEntity
  8
Schneidelinien
  6
Continuous
 62
     7
100
AcDbPolyline
 90
        2
 70
     0
 43
0.00025
 10
0.1433856384345278
 20
0.5110368187835765
 10
0.1547622332113421
 20
0.4999559056750934
  0
LWPOLYLINE
  5
18B
330
1F
100
AcDbEntity
  8
Schneidelinien
  6
Continuous
 62
     7
100
AcDbPolyline
 90
        2
 70
     0
 43
0.00025
 10
0.141694999194157
 20
0.5220575205716931
 10
0.1561384945840124
 20
0.5201610512787736
  0
LWPOLYLINE
  5
18C
330
1F
100
AcDbEntity
  8
Schneidelinien
  6
Continuous
 62
     7
100
AcDbPolyline
 90
        2
 70
     0
 43
0.00025
 10
0.1734539311084192
 20
0.5690935938722905
 10
0.1792412501102572
 20
0.5543770288598748
  0
LWPOLYLINE
  5
18D
330
1F
100
AcDbEntity
  8
Schneidelinien
  6
Continuous
 62
     7
100
AcDbPolyline
 90
        2
 70
     0
 43
0.00025
 10
0.1484700609220529
 20
0.5211679369786783
 10
0.1433856384345278
 20
0.5110368187835765
  0
LWPOLYLINE
  5
18E
330
1F
100
AcDbEntity
  8
Schneidelinien
  6
Continuous
 62
     7
100
AcDbPolyline
 90
        2
 70
     0
 43
0.00025
 10
0.1830943403769077
 20
0.5807282507283945
 10
0.1734539311084192
 20
0.5690935938722905
  0
LWPOLYLINE
  5
18F
330
1F
100
AcDbEntity
  8
Schneidelinien
  6
Continuous
 62
     7
100
AcDbPolyline
 90
        2
 70
     0
 43
0.00025
 10
0.2987364944831331
 20
0.6636945507525369
 10
0.2847499356387187
 20
0.6560835054287856
  0
LWPOLYLINE
  5
190
330
1F
100
AcDbEntity
  8
Schneidelinien
  6
Continuous
 62
     7
100
AcDbPolyline
 90
        2
 70
     0
 43
0.00025
 10
0.6064847149592749
 20
0.6887439439509042
 10
0.5416699001444614
 20
0.6887439439509042
  0
LWPOLYLINE
  5
191
330
1F
100
AcDbEntity
  8
Schneidelinien
  6
Continuous
 62
     7
100
AcDbPolyline
 90
        2
 70
     0
 43
0.00025
 10
0.6648180482926089
 20
0.6859661661731261
 10
0.6064847149592749
 20
0.6887439439509042
  0
LWPOLYLINE
  5
192
330
1F
100
AcDbEntity
  8
Schneidelinien
  6
Continuous
 62
     7
100
AcDbPolyline
 90
        2
 70
     0
 43
0.00025
 10
0.6305587890333531
 20
0.415595795802753
 10
0.6648180482926089
 20
0.6859661661731261
  0
LWPOLYLINE
  5
193
330
1F
100
AcDbEntity
  8
Schneidelinien
  6
Continuous
 62
     7
100
AcDbPolyline
 90
        2
 70
     0
 43
0.00025
 10
0.5416699001444614
 20
0.6887439439509042
 10
0.4861143445889056
 20
0.6859661661731261
  0
LWPOLYLINE
  5
194
330
1F
100
AcDbEntity
  8
Schneidelinien
  6
Continuous
 62
     7
100
AcDbPolyline
 90
        2
 70
     0
 43
0.00025
 10
0.4861143445889056
 20
0.6859661661731261
 10
0.4194476779222383
 20
0.6804106106175701
  0
LWPOLYLINE
  5
195
330
1F
100
AcDbEntity
  8
Schneidelinien
  6
Continuous
 62
     7
100
AcDbPolyline
 90
        2
 70
     0
 43
0.00025
 10
0.4194476779222383
 20
0.6804106106175701
 10
0.3629661964407532
 20
0.6730032032101629
  0
LWPOLYLINE
  5
196
330
1F
100
AcDbEntity
  8
Schneidelinien
  6
Continuous
 62
     7
100
AcDbPolyline
 90
        2
 70
     0
 43
0.00025
 10
0.5814847149592781
 20
0.4174476476546043
 10
0.5710319596772111
 20
0.4040286957693975
  0
LWPOLYLINE
  5
197
330
1F
100
AcDbEntity
  8
Schneidelinien
  6
Continuous
 62
     7
100
AcDbPolyline
 90
        2
 70
     0
 43
0.00025
 10
0.3833365668111242
 20
0.4007809809879385
 10
0.3924197725493857
 20
0.3891202181100132
  0
LWPOLYLINE
  5
198
330
1F
100
AcDbEntity
  8
Schneidelinien
  6
Continuous
 62
     7
100
AcDbPolyline
 90
        2
 70
     0
 43
0.00025
 10
0.5814847149592781
 20
0.4174476476546043
 10
0.5919433324408638
 20
0.4040211700432939
  0
LWPOLYLINE
  5
199
330
1F
100
AcDbEntity
  8
Schneidelinien
  6
Continuous
 62
     7
100
AcDbPolyline
 90
        2
 70
     0
 43
0.00025
 10
0.5413512550527733
 20
0.4029294104129371
 10
0.5710319596772067
 20
0.4040286957693975
  0
LWPOLYLINE
  5
19A
330
1F
100
AcDbEntity
  8
Schneidelinien
  6
Continuous
 62
     7
100
AcDbPolyline
 90
        2
 70
     0
 43
0.00025
 10
0.5314847149592739
 20
0.415595795802753
 10
0.5413512550527733
 20
0.4029294104129347
  0
LWPOLYLINE
  5
19B
330
1F
100
AcDbEntity
  8
Schneidelinien
  6
Continuous
 62
     7
100
AcDbPolyline
 90
        2
 70
     0
 43
0.00025
 10
0.5919433324408736
 20
0.4040211700432939
 10
0.6206974663573397
 20
0.4029361083860692
  0
LWPOLYLINE
  5
19C
330
1F
100
AcDbEntity
  8
Schneidelinien
  6
Continuous
 62
     7
100
AcDbPolyline
 90
        2
 70
     0
 43
0.00025
 10
0.6305587890333531
 20
0.415595795802753
 10
0.6206974663573304
 20
0.4029361083860716
  0
LWPOLYLINE
  5
19D
330
1F
100
AcDbEntity
  8
Schneidelinien
  6
Continuous
 62
     7
100
AcDbPolyline
 90
        2
 70
     0
 43
0.00025
 10
0.3342624927370484
 20
0.3924476476546045
 10
0.3432277958631969
 20
0.380938244818738
  0
LWPOLYLINE
  5
19E
330
1F
100
AcDbEntity
  8
Schneidelinien
  6
Continuous
 62
     7
100
AcDbPolyline
 90
        2
 70
     0
 43
0.00025
 10
0.3833365668111242
 20
0.4007809809879385
 10
0.3763776102593273
 20
0.3865674585841152
  0
LWPOLYLINE
  5
19F
330
1F
100
AcDbEntity
  8
Schneidelinien
  6
Continuous
 62
     7
100
AcDbPolyline
 90
        2
 70
     0
 43
0.00025
 10
0.3432277958631969
 20
0.380938244818738
 10
0.3763776102593318
 20
0.3865674585841198
  0
LWPOLYLINE
  5
1A0
330
1F
100
AcDbEntity
  8
Schneidelinien
  6
Continuous
 62
     7
100
AcDbPolyline
 90
        2
 70
     0
 43
0.00025
 10
0.4324106408851992
 20
0.4081883883953458
 10
0.4250066028089812
 20
0.3940389849416501
  0
LWPOLYLINE
  5
1A1
330
1F
100
AcDbEntity
  8
Schneidelinien
  6
Continuous
 62
     7
100
AcDbPolyline
 90
        2
 70
     0
 43
0.00025
 10
0.3924197725493857
 20
0.3891202181100109
 10
0.4250066028089768
 20
0.3940389849416456
  0
LWPOLYLINE
  5
1A2
330
1F
100
AcDbEntity
  8
Schneidelinien
  6
Continuous
 62
     7
100
AcDbPolyline
 90
        2
 70
     0
 43
0.00025
 10
0.4324106408851992
 20
0.4081883883953458
 10
0.4417532267134999
 20
0.3961946406866979
  0
LWPOLYLINE
  5
1A3
330
1F
100
AcDbEntity
  8
Schneidelinien
  6
Continuous
 62
     7
100
AcDbPolyline
 90
        2
 70
     0
 43
0.00025
 10
0.4824106408851985
 20
0.4137439439509018
 10
0.4743430513726841
 20
0.3998157323154933
  0
LWPOLYLINE
  5
1A4
330
1F
100
AcDbEntity
  8
Schneidelinien
  6
Continuous
 62
     7
100
AcDbPolyline
 90
        2
 70
     0
 43
0.00025
 10
0.4417532267135096
 20
0.3961946406866954
 10
0.4743430513726841
 20
0.3998157323154933
  0
LWPOLYLINE
  5
1A5
330
1F
100
AcDbEntity
  8
Schneidelinien
  6
Continuous
 62
     7
100
AcDbPolyline
 90
        2
 70
     0
 43
0.00025
 10
0.4824106408851985
 20
0.4137439439509018
 10
0.4922719635612212
 20
0.401084256534218
  0
LWPOLYLINE
  5
1A6
330
1F
100
AcDbEntity
  8
Schneidelinien
  6
Continuous
 62
     7
100
AcDbPolyline
 90
        2
 70
     0
 43
0.00025
 10
0.4922719635612212
 20
0.401084256534218
 10
0.521026097477697
 20
0.4021693181914425
  0
LWPOLYLINE
  5
1A7
330
1F
100
AcDbEntity
  8
Schneidelinien
  6
Continuous
 62
     7
100
AcDbPolyline
 90
        2
 70
     0
 43
0.00025
 10
0.5314847149592739
 20
0.415595795802753
 10
0.5210260974776926
 20
0.4021693181914494
  0
LWPOLYLINE
  5
1A8
330
1F
100
AcDbEntity
  8
Schneidelinien
  6
Continuous
 62
     7
100
AcDbPolyline
 90
        2
 70
     0
 43
0.00025
 10
0.1345061351284663
 20
0.6759193332727567
 10
0.1498458015567606
 20
0.7016883661681759
  0
ENDSEC
  0
SECTION
  2
OBJECTS
  0
DICTIONARY
  5
C
330
0
100
AcDbDictionary
281
     1
  3
ACAD_GROUP
350
D
  3
ACAD_LAYOUT
350
1A
  3
ACAD_MLINESTYLE
350
17
  3
ACAD_PLOTSETTINGS
350
19
  3
ACAD_PLOTSTYLENAME
350
E
  0
DICTIONARY
  5
D
102
{ACAD_REACTORS
330
C
102
}
330
C
100
AcDbDictionary
281
     1
  0
DICTIONARY
  5
1A
102
{ACAD_REACTORS
330
C
102
}
330
C
100
AcDbDictionary
281
     1
  3
Layout1
350
1E
  3
Layout2
350
26
  3
Model
350
22
  0
DICTIONARY
  5
17
102
{ACAD_REACTORS
330
C
102
}
330
C
100
AcDbDictionary
281
     1
  3
Standard
350
18
  0
DICTIONARY
  5
19
102
{ACAD_REACTORS
330
C
102
}
330
C
100
AcDbDictionary
281
     1
  0
ACDBDICTIONARYWDFLT
  5
E
102
{ACAD_REACTORS
330
C
102
}
330
C
100
AcDbDictionary
281
     1
  3
Normal
350
F
100
AcDbDictionaryWithDefault
340
F
  0
LAYOUT
  5
1E
102
{ACAD_REACTORS
330
1A
102
}
330
1A
100
AcDbPlotSettings
  1

  2

  4

  6

 40
0.0
 41
0.0
 42
0.0
 43
0.0
 44
0.0
 45
0.0
 46
0.0
 47
0.0
 48
0.0
 49
0.0
140
0.0
141
0.0
142
1.0
143
1.0
 70
   688
 72
     0
 73
     0
 74
     5
  7

 75
    16
147
1.0
148
0.0
149
0.0
100
AcDbLayout
  1
Layout1
 70
     1
 71
     1
 10
0.0
 20
0.0
 11
12.0
 21
9.0
 12
0.0
 22
0.0
 32
0.0
 14
1.000000000000000E+20
 24
1.000000000000000E+20
 34
1.000000000000000E+20
 15
-1.000000000000000E+20
 25
-1.000000000000000E+20
 35
-1.000000000000000E+20
146
0.0
 13
0.0
 23
0.0
 33
0.0
 16
1.0
 26
0.0
 36
0.0
 17
0.0
 27
1.0
 37
0.0
 76
     0
330
1B
  0
LAYOUT
  5
26
102
{ACAD_REACTORS
330
1A
102
}
330
1A
100
AcDbPlotSettings
  1

  2

  4

  6

 40
0.0
 41
0.0
 42
0.0
 43
0.0
 44
0.0
 45
0.0
 46
0.0
 47
0.0
 48
0.0
 49
0.0
140
0.0
141
0.0
142
1.0
143
1.0
 70
   688
 72
     0
 73
     0
 74
     5
  7

 75
    16
147
1.0
148
0.0
149
0.0
100
AcDbLayout
  1
Layout2
 70
     1
 71
     2
 10
0.0
 20
0.0
 11
0.0
 21
0.0
 12
0.0
 22
0.0
 32
0.0
 14
0.0
 24
0.0
 34
0.0
 15
0.0
 25
0.0
 35
0.0
146
0.0
 13
0.0
 23
0.0
 33
0.0
 16
1.0
 26
0.0
 36
0.0
 17
0.0
 27
1.0
 37
0.0
 76
     0
330
23
  0
LAYOUT
  5
22
102
{ACAD_REACTORS
330
1A
102
}
330
1A
100
AcDbPlotSettings
  1

  2

  4

  6

 40
0.0
 41
0.0
 42
0.0
 43
0.0
 44
0.0
 45
0.0
 46
0.0
 47
0.0
 48
0.0
 49
0.0
140
0.0
141
0.0
142
1.0
143
1.0
 70
  1712
 72
     0
 73
     0
 74
     0
  7

 75
     0
147
1.0
148
0.0
149
0.0
100
AcDbLayout
  1
Model
 70
     1
 71
     0
 10
0.0
 20
0.0
 11
1.1
 21
0.8
 12
0.0
 22
0.0
 32
0.0
 14
0.0
 24
0.0
 34
0.0
 15
1.1
 25
0.8
 35
0.0
146
0.0
 13
0.0
 23
0.0
 33
0.0
 16
1.0
 26
0.0
 36
0.0
 17
0.0
 27
1.0
 37
0.0
 76
     0
330
1F
  0
MLINESTYLE
  5
18
102
{ACAD_REACTORS
330
17
102
}
330
17
100
AcDbMlineStyle
  2
Standard
 70
     0
  3

 62
   256
 51
90.0
 52
90.0
 71
     2
 49
0.5
 62
   256
  6
BYLAYER
 49
-0.5
 62
   256
  6
BYLAYER
  0
ACDBPLACEHOLDER
  5
F
102
{ACAD_REACTORS
330
E
102
}
330
E
  0
ENDSEC
  0
EOF
